Turning Japanese Intro Tab - Clash






|-------10-10-10-10--8-8--5-5-8------------------| x2
|------------------------------------------------|
|------------------------------------------------|
|------------------------------------------------|
|------------------------------------------------|
|------------------------------------------------|
it's s****y but its the only one so ha!!
*if you thin it sounds better you ca bar all three high strings.(ex.)


|-------10-10-10-10--8-8--5-5-8------------------|
|-------10-10-10-10--8-8--5-5-8------------------|
|-------10-10-10-10--8-8--5-5-8------------------| x2
|------------------------------------------------|
|------------------------------------------------|
|------------------------------------------------|

Înscrie-te la newsletter


Like us on Facebook