Hang Me Up To Dry (ver2) Bass Tab - Cold War Kids






Cold War Kids
Hang Me Up to Dry

Intro
G|-----------------------------------------------------------------------|
D|---------------------------------------33----33----33-----33-----------|
A|-0-11-11--0-11-11--0-11-11--0-11-11---2-----2-----2----222-------------|
E|-----------------------------------------------------------------------|

Verse x2
G|-----------------------------------------------------------------------|
D|-----------------------------------------33---33---33----33------------|
A|-0-11-11--0-11-11--0-11-11--000-11-11--2-----2----2---222--------------|
E|-----------------------------------------------------------------------|

G|-----------------------------------------------------------------------|
D|---------------------------------------33----33----33-----33-----------|
A|-0-11-11--0-11-11--0-11-11--0-11-11---2-----2-----2----222-------------|
E|-----------------------------------------------------------------------|

Chorus x5
G|-----------------------------------------------------------------------|
D|----------------------------------------33---33---33---33--------------|
A|-0-11-11--0-11-11--0-11-11--0-11-11---2----2----2---222----------------|
E|-----------------------------------------------------------------------|

Verse 2 x2
G|-----------------------------------------------------------------------|
D|----------------------------3-----3-----3----3-------------------------|
A|-0-11--0-11--0-11--0-11----2-----2-----2----2--------------------------|
E|-----------------------------------------------------------------------|

Chorus x5

Outro x2
G|-----------------------------------------------------------------------|
D|----------------------------------------33-----33-----33----33---------|
A|-0-11-11--0-11-11--0-11-11--0-11-11----2------2------2------2----------|
E|-----------------------------------------------------------------------|






Like us on Facebook