Hang Me Up To Dry (ver2) Tab - Cold War Kids






Cold War Kids - Hang Me Up To Dry

Verse:

e)-----------------------------------------|
B)-----------------------------------------|
G)---------------------------------------0-|
D)----5-5-5-5-5-5-5-5--------------------0-|  repeat till ya bored
A)----------------------7-7-7-7-7-7-7-7--0-|
E)-0/3---3---3---3-3-3/0---0---0---0-0---0-|

Interlude Solo Bit:

e)--------------------------------------------------------------------------------------------|
B)--------------------------------------15-15-15-12------------------------------12----12-----|
G)---------------12-12-12-12-12-12-12-12-----------------------------12-12-12-12-14b16-14b16--|
D)-12h14-14-14-14-------------------------------------12h14-14-14-14--------------------------|
A)--------------------------------------------------------------------------------------------|
E)--------------------------------------------------------------------------------------------|

Repeat 2wice + bit of variation through it

b=bend
/=slide
h=hammer on

ĂŽnscrie-te la newsletter


Join the ranks ! LIKE us on Facebook