Hang Me Up To Dry Tab - Cold War Kids






-----------------------------------------------------------------------------
     HANG ME UP TO DRY - Cold War Kids
-----------------------------------------------------------------------------
Tabbed by: Chapman Li (aka SonicYouthRules)

Wow, a great new band - the rest of their album is very good also - but if they have a 
track, this is probably it. Hoping to catch them in London at the end of November - can't wait!

Very simple song to play...

Tuning: Standard


INTRO/MAIN RIFF (0:01)

e|-------------------------------------------------------------------------|
B|-------------------------------------------------------------------------|
G|-------------------------------------------------------------------------|
D|---5--5--5--5---5--5---5--5~---------------------------------------------|
A|-------------------------------------------------------------------------|
E|--3-----3-----3------3---------------------------------------------------|

e|-------------------------------------------------------------------------|
B|-------------------------------------------------------------------------|
G|-------------------------------------------------------------------------|
D|-------------------------------------------------------------------------|
A|---7--7--7--7--7--7----7--5----------------------------------------------|
E|--0----0-----0------0-0--0-----------------------------------------------|


Some minor variations throughout the song


SOLO (1:09) (2:23)

e|-------------------------------------------------------------------------|
B|-----------------------------15------------------------------------------|
G|---------------12-12--12-12----------------------------------------------|
D|-12-12--14-14----------------12------------------------------------------|
A|---------------10-10--10-10----------------------------------------------|
E|-10-10--12-12------------------------------------------------------------|

e|-------------------------------------------------------------------------|
B|-----------------------------12b-12b-------------------------------------|
G|---------------12-12--12-12--12b-12b-------------------------------------|
D|-12-12--14-14------------------------------------------------------------|
A|---------------10-10--10-10----------------------------------------------|
E|-10-10--12-12------------------------------------------------------------|

e|-------------------------------------------------------------------------|
B|-----------------------------15------------------------------------------|
G|---------------12-12--12-12----------------------------------------------|
D|-12-12--14-14----------------12------------------------------------------|
A|---------------10-10--10-10----------------------------------------------|
E|-10-10--12-12------------------------------------------------------------|


e|-------------------------------------------------------------------------|
B|----------------------------x-12-12-12b-12b------------------------------|
G|---------------12-12--12-12-x-12-12-12b-12b------------------------------|
D|-12-12--14-14---------------x--------------------------------------------|
A|---------------10-10--10-10----------------------------------------------|
E|-10-10--12-12------------------------------------------------------------|

x2


| /  slide up
|   slide down
| h  hammer-on
| p  pull-off
| ~  vibrato
| +  harmonic
| x  Mute note
===============================================================================

ĂŽnscrie-te la newsletter


Like us on Facebook