Hospital Beds Bass Tab - Cold War Kids






Band-Cold War Kids
Song-Hospital Beds
Album-Robbers & Cowards

Piano Intro (0:00)

Verse  (0:21)
G|-----------------------|
D|-44---------44---------|  x2
A|----4~---7~----4~------|
E|-------55---------55-0~|

G|------------|
D|-44---------|  
A|----4~------|
E|-------55-0~|

G|-----------------------|
D|-44---------44---------|  x
A|----4~---7~----4~------|
E|-------55---------55-0~|

G|------------|
D|-44---------|  
A|----4~------|
E|-------55-0~|

chorus
G|--------------------------------|
D|--------------------------------|
A|44-442----------44-442-777-7777-| x4
E|-------00-000-0-----------------|

alternates of chorus used in song

Verse  x6

chorus x5

outro
G|-----------------------------------------------|
D|-----------------------------------------------|
A|-----------------------------------------------|
E|00-00-00-00-00-00-00-00-00-00-00-00-00-00-00-00|

G|----------------------------------------------|
D|----------------------------------------------|
A|44-442---------44-442---44-442---------44-442-|
E|------00-000-0--------0-------00-000-0-------0|

There are alterations of verse and chorse with the same notes throughout song

ĂŽnscrie-te la newsletter


Like us on Facebook