Hospital Beds Tab - Cold War Kids






-------------------------------------------------------------------------------
   HOSPITAL BEDS - Cold War Kids
-------------------------------------------------------------------------------
Tabbed by: Chapman Li (aka SonicYouthRules

MAIN RIFF

e|-----------------------------------------------------------------------------|
B|-----------------------------------------------------------------------------|
G|-----------------------------------------------------------------------------|
D|-----------------------------------------------------------------------------|
A|--4-4--2-2----4-4--2---------------------------------------------------------|
E|--2-2--0-0----2-2--0---------------------------------------------------------|


Fill 1 (1:26)+(3:10)

e|--------------------------------------------------------------------------|
B|--------------------------------------------------------------------------|
G|--9-9--9-9-8--------------------------------------------------------------|
D|-------------9------------------------------------------------------------|
A|--------------------------------------------------------------------------|
E|--------------------------------------------------------------------------|

piano transcribed for guitar

Fill 2 (2:05)

e|--------------------------------------------------------------------------|
B|--------------------------------------------------------------------------|
G|--------------------------------------------------------------------------|
D|--------------------------------------------------------------------------|
A|--9-9--4------7----9-9--4------7------------------------------------------|
E|----------5-5--------------5-5--------------------------------------------|


Fill 3 (4:10)

e|--------------------------------------------------------------------------|
B|--14-14--12-14---12---12---14-14--12-14----12-----------------------------|
G|---------------13---13-------------------13----13-------------------------|
D|--------------------------------------------------------------------------|
A|--------------------------------------------------------------------------|
E|--------------------------------------------------------------------------|


Slight variation on Fill 1 for Outro


| /  slide up
|   slide down
| h  hammer-on
| p  pull-off
| ~  vibrato
| +  harmonic
| x  Mute note
=============================================================================

ĂŽnscrie-te la newsletter


Join the ranks ! LIKE us on Facebook