Passing The Hat Tab - Cold War Kids






-----------------------------------------------------------------------------
     PASSING THE HAT - Cold War Kids
-----------------------------------------------------------------------------


Tabbed by: Chapman Li (aka SonicYouthRules)


Tuning: Standard


INTRO/MAIN RIFF (0:01)

e|-------------------------------------------------------------------------|
B|-------------------------------------------------------------------------|
G|-------------------------------------------------------------------------|
D|--9-9---------9-9--------------------------------------------------------|
A|--7-7---9-9---7-7---9-9--------------------------------------------------|
E|--------7-7---------7-7--------------------------------------------------|



Fill 1 (0:28) (1:27)

e|-------------------------------------------------------------------------|
B|-------12-12-12-12h13p13-----12-12-12-12h13p12---------------------------|
G|-------------------------------------------------------------------------|
D|--9-9--------------------------------------------------------------------|
A|--7-7---------------------9-9--------------------------------------------|
E|--------------------------7-7--------------------------------------------|
    x4



CHORUS (0:49) (1:48)

e|-------------------------------------------------------------------------|
B|-------------------------------------------------------------------------|
G|-------------------------------------------------------------------------|
D|--5-5-5--4-4-4-----------------------------------------------------------|
A|--3-3-3--2-2-2-7-7-7--5--5-----------------------------------------------|
E|---------------5-5-5--3--3-----------------------------------------------|
     x4

[2nd time round, this is played through abt 12 times)


Verse to finish




| /  slide up
|   slide down
| h  hammer-on
| p  pull-off
| ~  vibrato
| +  harmonic
| x  Mute note
=============================================================================






Like us on Facebook