Saint John Bass Tab - Cold War Kids






Cold War Kids

Sait John

Standard Tuning- EADG

intro, verse
G---------------------------------------------------------------------|
D---------------------------------------------------------------------|
A-----2-------0-------------------2-------0------------repeat---------|
E------------------0---------------------------0----------------------|


chorus
G---------------------------------------------------------------------|
D-----------2------4---4--------7-7-7-----4---------------------------|
A-----2--2-----------------------------------2------------------------|
E---------------------------------------------------------------------|


pretty simple bassline, great song.

http://www.coldwarkids.com/

ĂŽnscrie-te la newsletter


Like us on Facebook