Violet Hill Tab - Coldplay




Coldplay  Violet Hill - LYRICS CHORDS TAB
Tabbed by Gerry Strother
Lyrics transcribed by Colin Jennison

www.thecoldplaytribute.com - Thanks Guys
--------------------------------------------
Accurate coldplay tabs - All in one place
Ad-free, No Pop-ups, Get them fast

Guitar (low to high) Db Gb Cb Fb Ab Db

Verse:

Was a long and dark December
From the rooftops I remember
There was snow
White snow

Clearly I remember
From the windows they were watching
While we froze
Down Below

d-------------------|
a-------------------|
f-------------------|
c-------------------|
g--7-6--5-4---------|
d--5-4--3-2---------|

 Pre-Chorus:

When the futures architectured
By a carnival of idiots on show
You better lie low


d----------------|
a--5-------------|
f---7b9----------|
c----------------|
g----------------|
d----------------|


Chorus Riff:

If you love me
Won't you let me know?

d-----------------------------|
a-----------------------------|
f-9--7--14--9--7--9--9--------|
c-9--7--14--9--7--9--9--------|
g-7--5--12--7--5--7--7--------|
d-------------------0--0------|

Verse:

Was a long and dark december
When the banks became Cathedrals
And the fog
Became God

Priests clutched onto bibles
And went out to fit thier rifles
And the cross
Was held aloft

d-----------------|
a--5--------------|
f---7b9-----------|
c-----------------|
g-----------------|
d-----------------|

d-------------------|
a-------------------|
f-------------------|
c-------------------|
g--7-6--5-4---------|
d--5-4--3-2---------|

 Pre- Chorus:

Bury me in honor
When I'm dead and hit the ground
A love like home, it unfolds


d------------------|
a--17--------------|
f--19b21-----------|
c------------------|
g------------------|
d------------------|

Chorus:

If you love me
Won't you let me know?

Solo:

Riff: x3
e---------------------------------------|
b---------------------------------------|
g-----11----12--------------------------|
d-14----14--------12----14--------------|
a---------------14----14------10--------|
e-----------------------------------12--|

Whoa, whoa

e--------------------------------------------|
b--------------------------------------------|
g------11----12------------------------------|
d-14----14----------12-----------------------|
a------------------14----14--7-6-5-4---------|
e------------------------------5-4-3-2-------|


Pre-Chorus:

I don't want to be a soldier
That the captain of some sinking ship
Would stow
Far below

d----------------|
a--17------------|
f19b21----------|
c----------------|
g----------------|
d----------------|

Chorus:

If you love me,
Why'd you let me go?

d-----------------------------|
a-----------------------------|
f-9--7--14--9--7--9--9--------|
c-9--7--14--9--7--9--9--------|
g-7--5--12--7--5--7--7--------|
d-------------------0--0------|

Outro:

I took my love down to Violet Hill
There we sat in snow

All that time she was silent still
So, if you love me, won't you let me know?

If you love me, won't you let me know?

ĂŽnscrie-te la newsletter


Join the ranks ! LIKE us on Facebook