Fata din Vis Chords - Compact






D                 G         A
E|---------0---------------0----------------------|
B|-----3-----3-2-3-------3----------3-------------|
G|---2---2-------------0----------2---2-----------|
D|-0----------------------------------------------|
A|-----------------------------0------------------|
E|-------------------3----------------------------|


 D                 G         A
E|---------0---------------0------------0---------2-0--------|
B|-----3-----3-2-3-------3----------3-----3---3--------3-2-3-|
G|---2---2-------------0----------2---2-----2----------------|
D|-0---------------------------------------------------------|
A|-----------------------------0-----------------------------|
E|-------------------3---------------------------------------|



Bm/A - notez asa Bm cu La in bas anume...


E|----2----
B|----3----
G|----4----
D|----4----
A|----A----
E|----x----



D     A     G    A   
Imi amintesc de tine
Stateai in fata mea,
A fost de-ajuns o privire
Ce n-o pot, n-o pot uita.
Cu bratele-amandoua,
Incerc sa te regasesc,
Sa fim din nou impreuna,
E tot ce pot, sa imi doresc.

Cu gandul pret de o clipa
Sa te-nteleg as fi vrut,
As fi ramas cu tine,
C-am sa te pierd nu am crezut.
Afara numai vantul,
Gonind prin noapte spunea,
Sa las in urma timpul,
Ce mult prea, prea iute alerga.

Bm         Bm/A      G      A
Pornesc la drum prin noapte,
D             A          G   A
 In noaptea-n care ti-am zis,
D         A         G     
 Ca numai tu dintre toate,
A            D    A   G
Doar tu esti fata din vïs.


Privesc la trenul care,
Ducea nepasator,
Caldura soaptei tale,
Ce-avea so piarda pana-n zori.
Afara numai vantul,
Gonind prin noapte spunea,
Sa las in urma timpul,
Ce mult prea, prea iute alerga.

D          A    G
Daca vrei, daca vrei
A         D     A G A
Voi fi cu tine,
Daca vrei, daca vrei
Voi sta langa tine.

ĂŽnscrie-te la newsletter


Like us on Facebook