Time-zeit Tab - Coppelius






-------------------------------------------------------------------------------
     TIME-ZEIT - Coppelius
-------------------------------------------------------------------------------
Tabbed by: Tobi R./ Szaladin
Email: sz4l4d1n@googlemail.com

BAND URL: http://www.coppelius.eu/index_en.html
Band @wikipedia: http://en.wikipedia.org/wiki/Coppelius



Tuning: EADgbe

Intro:
e|-----------------------------------------------------|---------|
B|-----------------------------------------------------|---------|
G|----55---5--(5)7--------5---5-5-7-7--5-7-------5---|---------|
D|----x-x---x--(x)-x--------x---x-x-x-x--x-x-------5---|---------|
A|----35---3--(3)5--------3---3-3-5-5--3-5-------3---|---------|
E|-----------------------------------------------------|-4-3-1-0-|



Verse: (is actually the first half of the intro, 
just hold the last chord to emulate the bow of the cello)
e|-------------------------|
B|-------------------------|
G|----55---5--(5)7-------|
D|----x-x---x--(x)-x-------|
A|----35---3--(3)5-------|
E|-------------------------|


Bridge:
e|------------------------------|
B|------------------------------|
G|------------------------------|
D|---7----10-10--10-10---------|
A|---7----10-10--10-10---------|
E|---5----8--8---8--8----------|
Four times, the fourth one is like this:

e|-----------------------------------------|
B|-----------------------------------------|
G|-----------------------------------------|
D|---7----10-10--10-10------1012-12--10--|
A|---7----10-10--10-10------1012-12--10--|
E|---5----8--8---8--8--------810-10--8---|


"Zeit verflieg"- refrain:
e|-----------------------------------------|
B|-----------------------------------------|
G|-----------------------------------------| 3x
D|---7----10-10--10-10------1012-12--10--|
A|---7----10-10--10-10------1012-12--10--|
E|---5----8--8---8--8--------810-10--8---|


e|------------------------------------|
B|------------------------------------|
G|------------------------------------|
D|---7----10-10--10-10-----x-12-x-10-|
A|---7----10-10--10-10-----x-12-x-10-|
E|---5----8--8---8--8------x-10-x-8--|



Outro:
e|---------------------------------------------------------------|
B|---------------------------------------------------------------|
G|---------------------------------------------------------------|
D|----7-7-----7-7-7---7-7---9-----7-7-----7-7-7---7--9--7--------|
A|----5-5-----5-5-5---5-5---7-----5-5-----5-5-5---5--7--7--------|
E|------------------------------------------------------5--------|


| /  slide up
|   slide down
| h  hammer-on
| p  pull-off
| ~  vibrato
| +  harmonic
| x  Mute note
===============================================================================






Like us on Facebook