Dirge Inferno Intro Tab - Cradle of Filth






                          CRADLE OF FILTH
                            THORNOGRAPHY
                               2006
                           DIRGE INFERNO
                          [INTRO + CHORUS]


Tabbed by : Mike
Zombieritualx@aim.com
Tuning [C]
[I dont know my tuning but if you know cradles then,
It shouldnt be a problem.]

+ = Fast Picking
* = Palm Mute
I only know some parts of this song.

[Intro:
|------------------------------------------|
|------------------------------------------|
|------------------------------------------|
|---9-10---9-10---9---9-10-9----9-10-12----| [2nd time
|-7------7------7---8--------10------------|  just do a pinch
|------------------------------------------|  on the 12 fret]

|-----------------------------------------------------|
|-----------------------------------------------------|
|-----------------------------------------------------|
|-----------------------------------------------------|
|-7-9-10-7-9-10-7-9----10-9-10------------------------|
|-------------------8----------10---------------------|
  + + +  + +  + + + +   + + +   +

The chorus when Dani goes,

Dirge Inferno

As it is written, damn it
So let it be wrung
From throats of those in overthrow
The past at last has come

It goes

|------------------------------------------------------------|
|------------------------------------------------------------|
|------------------------------------------------------------|
|---9-10--9-10--9---9-10-9---9-10-12-------------------------|
|---9-10--9-10--9---9-10-9---9-10-12-------------------------|
|-0-7-8-0-7-8-0-7-0-7-8--7-0-7-8--10-------------------------|
  *     *     *   *        *


Thats all i Know. Enjoy playing most of Dirge Inferno!

ĂŽnscrie-te la newsletter


Like us on Facebook