Thank God For The Suffering (ver2) Tab - Cradle of Filth






intro
riff 1 pt 1
|-----------------------------------------------|
|-----------------------------------------------|
|------4--5-------4--5--------4--5--------4--5--|
|----2----------2-----------2-----------2-------|
|-0~---------0~----------0~----------0~~~-------|
|-----------------------------------------------|

riff 1 pt 2
|----------------------------------------2-------|
|-------------------------------3----------------|
|---5--4-------5--4--2----------------------5--4-|
|--------2------------------5------5--4----------|  4 times
|-3~~~~~~----3~~~~-------2-----------------------|
|------------------------------------------------|

riff 2
|-----------------------------------|
|-----------------------------------|
|-----------------------------------|
|-----------------------------------|  2 times
|--7-10-9--9~~-----7-10-9-6---6-5-5-|
|--5-8--7--7~~-----5-8--7-4---4-3-3-|


thats all so far!!





ĂŽnscrie-te la newsletter


Like us on Facebook