Blue Condition Tab - Cream




Artist: Cream
Song: Blue Condition
Album: Disraeli Gears
Key: G minor pentatonic blues
Tabbed By: Alex Schwer "TheCream"


h - hammer on
p - pull off
^ - bend up
V - release bend
/ - slide up
 - slide down
~ - vibrato


Intro:
                   G
E--31--1----------3---|
B--31--1-0h1p0-1--0---|
G---------------2--0---|
D------------------0---|
A------------------2---|
E------------------3---|

Verse:
          G  C  G         G  C  G
E---------3--3--3---------3--3--3-----------------------------------|
B---------3--5--3---------3--5--3-----------------------------------|
G---------4--5--4---------4--5--4-----------------------------------|
D---------5--5--5--3-3h5--5--5--5-----------------------------------|
A---------5--3--5---------5--3--5-----------------------------------|
E--2-3-6--3-----3---------3-----3-----------------------------------|

Bridge:

E---------------------------------------------------------------|
B-----------------------6^v-------------------------------------|
G-----------5-5~-3-5~-------5~--5-5~-3-5~--8^v-5~---------------|
D-----------5-5~-3-5~-----------5-5~-3-5~-----------------------|
A--------3------------------------------------------------------|
E--2-3-6--------------------------------------------------------|

                      G  G  G  G  C  G
E---------------------------------3----------------------------|
B---------------------------------5----------------------------|
G--5-5-3-5---5---5----------------5----------------------------|
D--5-5-3-5---5---5----5--5--5--5--5--5-------------------------|
A---------------------5--5--5--5--3--5-------------------------|
E---------------------3--3--3--3-----3-------------------------|
                     "Blue, Blue.."

ĂŽnscrie-te la newsletter

Join the ranks ! LIKE us on Facebook