Born Under A Bad Sign Tab - Cream




#----------------------------------PLEASE NOTE---------------------------------#
#This file is the author's own work and represents their interpretation of the #
#song. You may only use this file for private study, scholarship, or research. #
#------------------------------------------------------------------------------##

CREAM
"Born under a bad sign ..."
------------------------------------------------------------------------
------------------------------------------------------------------------
----------3-------------------------3-----------------------------------
------3-5---5-------3-----------3-5---5-------3-------------------------
--3-5-----------3-5---------3-5-----------3-5---------------------------
----------------------6-3-----------------------6-3---------------------

"If it wasn't for bad luck ..."
----------------------------------------------------------------------
----------------------------------------------------------------------
----------5-5-6-5-4-3-3---------------------3-------------------------
----------4-4-5-4-3-2-2-----------------3-5---5-----------------------
--2-3-4-5-5-5-6-5-4-3-3-3-5---3-----3-5-------------------------------
----------------------------6---3-------------------------------------

"Hard luck and trouble's ..."
-------------------------------------------------------------------
-------------------------------------------------------------------
----------------------------------------------------------3--------
------3-3-5-------3-3-5-------3-3-5-------3-3-5-------3-5---5-etc--
--3-5---------3-5---------3-5---------3-5---------3-5--------------
-------------------------------------------------------------------


Tabbed by Dennis Wever
ĂŽnscrie-te la newsletter


Join the ranks ! LIKE us on Facebook