Im So Glad (ver2) Tab - Cream




Artist: Cream
Song: Im So Glad
Album: Fresh Cream
Tuning: Standard

Intro: (finger picked)
e|-------------0-----0--------------0-----0----------0-----0----------0-----|
B|---------------0-----0--------------0-----0----------0-----0----------0---|
G|-1-2-3--4-----------------4--3----------------3--2-------------2----------|
D|--------------------------------------------------------------------------|
A|-2-3-4--5--5-----5------5-------4-----4-----4----------3-----3----2-----2-|
E|--------------------------------------------------------------------------|

Chorus:
e:-0-0-0--000--2-2-2--222--0-0-2-2--0-0-0-|
B:-0-0-0--000--3-3-3--333--0-0-3-3--0-0-0-|
G:-1-1-1--111--2-2-2--222--1-1-2-2--1-1-1-|
D:-2-2-2--222--0-0-0--000--2-2-0-0--2-2-2-|
A:-2-2-2--222--------------2-2------2-2-2-|
E:----------------------------------------|
   E E E  EEE  D D D  DDD  E E D D  E E E

I haven't tabbed out the solo yet, sorry, but the song is in the key of E, so you can 
do like Clapton did and improvise.

ĂŽnscrie-te la newsletter

Join the ranks ! LIKE us on Facebook