Pity For A Dime (ver4) Tab - Creed






Gtr I (E A D G B E) - 'Clean'
Gtr II (E A D G B E) - 'Clean'
Gtr III (E A D G B E) - 'Distortion (2 arranged for 1)'
Gtr IV (E A D G B E) - 'Distortion w/Delay'


 Intro
  Slowly Q=70
  E5         B/B/D#        C#m                 A
 4/4
  Gtr I
                 |-3-|
  Q  S S S S E E S S S E   +S  S S S S S S  S  E. S S S S S
|------0---4-------------|------------------------5---------|
|-0----0---4-4-----------|---------5p4------------5---------|
|-9--9-9-0-4-4-----------|-------6-----6-------6--6---------|
|-9--9---0-4-x-4---------|-----6---------6h=7--7------------|
|-7--7-----4-7-6-6h7p6-4-|-(4)-------------(0)-7----------9-|
|-0--0-------------------|---------------------5----0-5s7---|


  E5         B/B/D#        C#m                 A
                 |-3-|
  Q  S S S S E E S S S E   +S  S S S S S S  S  E. S S S S S
|----0-0-----------------|------------------------5---------||
|----0-0---4-4-----------|---------5p4------------5---------||
|----9-9-0-4-4-4---------|-------6-----6-------6--6---------||
|----9---0-4-4-4---------|-----6---------6h=7--7------------||
|-7------0-4-7-6-6h7p6-4-|-(4)-------------(0)-7----------9-||
|------------------------|---------------------5----0-5s7---||


   Verse
    E5         B/B/D#        C#m                 A
                   |-3-|
    Q  S S S S E E S S S E   +S  S S S S S S  S  E. S S S S S  4x
||-----0-0-----------------|------------------------5----------||
||o----0-0---4-4-----------|---------5p4------------5---------o||
||-----9-9-0-4-4-4---------|-------6-----6-------6--6----------||
||-----9---0-4-4-4---------|-----6---------6h=7--7-------------||
||o-7------0-4-7-6-6h7p6-4-|-(4)-------------(0)-7----------9-o||
||-------------------------|---------------------5----0-5s7----||


 Interlude
  E5     C#m7                G#        B       E5
  Gtrs I, II
  Q  Q   S S S S S S S  S    Q  E. S S S E S S S S
|--------------0-----------|-4--4--4---------7-----|
|-0--------------0---------|-4--4--4-----7-7-7-----|
|-9--9--6---------6---(5)-|-5--5--5---8-8-8-8-----|
|-9--9----6---------6-----|-6--6--6---9-9-9-9-9-9-|
|-7--7------4-------------|-6--6--6---9-9-9---7-7-|
|-0------------------------|-4--4--4---7-7-7---0-0-|


         C#m7                G#        A
  Q  Q   S S S S S S S  S    Q  E. S S S E S S S S
|--------------0-----------|-4--4--4---5-5-5-5-----||
|-0--------------0---------|-4--4--4---5-5-5-5-----||
|-9--9--6---------6---(5)-|-5--5--5---6-6-6-6-----||
|-9--9----6---------6-----|-6--6--6---7-7-7-7-9---||
|-7--7------4-------------|-6--6--6---7-7-7-7-7-7-||
|-0------------------------|-4--4--4---5-5-5-5-0-0-||


   Verse
    E5         B/B/D#        C#m                 A
                   |-3-|
    Q  S S S S E E S S S E   +S  S S S S S S  S  E. S S S S S  3x
||-----0-0-----------------|------------------------5----------||
||o----0-0---4-4-----------|---------5p4------------5---------o||
||-----9-9-0-4-4-4---------|-------6-----6-------6--6----------||
||-----9---0-4-4-4---------|-----6---------6h=7--7-------------||
||o-7------0-4-7-6-6h7p6-4-|-(4)-------------(0)-7----------9-o||
||-------------------------|---------------------5----0-5s7----||


  E5         B/B/D#        C#m             A
                 |-3-|
  Q  S S S S E E S S S E   S S S S S S S S E S S S S S S
|----0-0-----------------|---------------------5---------||
|----0-0---4-4-----------|-------5p4-----------5-------0-||
|----9-9-0-4-4-4---------|-----6-----6-----6-6-6-6-6---0-||
|----9---0-4-4-4---------|---6---------6h7-7-7---7-7-7-0-||
|-7------0-4-7-6-6h7p6-4-|-4---------------7-----7-7-7---||
|------------------------|-----------------5-----5-5-5---||


   Chorus
    E5                 G
    Q  E S S E S S S S E   +S  S E E. S S S E S S S S
||--0--0-0-0-0-0-0-0-0-3-|-(3)-3-3-3--3-3-3-3-3-3-3-3-|
||o-0--0-0-0-0-0-0-0-0-3-|-(3)-3-3-3--3-3-3-3-3-3-3-3-|
||--9--9-9-9-9-9-9-9-9-4-|-(4)-4-4-4--4-4-4-4-4-4-4-4-|
||--9--9-9-9-9-9-9-9-9-5-|-(5)-5-5-5--5-5-5-5-5-5-5-5-|
||o-7--7-7-7-7-7-7-7-7-5-|-(5)-5-5-5--5-5-5-5-5-5-5-5-|
||--0--0-0-0-0-0-0-0-0-3-|-(3)-3-3-3--3-3-3-3-3-3-3-3-|


  Bsus2   F#   F#11    E5
  E S S S S E. E S S S S S  4x
|-2-2-2-2-2-2--0-0-0-0-0-0--||
|-2-2-2-2-2-2--0-0-0-0-0-0-o||
|-4-4-4-4-3-3--3-3-3-3------||
|-4-4-4-4-4-4--4-4-4-4------||
|-2-2-2-2-4-4--4-4-4-4-----o||
|---------2-2--2-2-2-2------||


 Interlude
  E                  EsusE
                                                ~
  Q  E S S S S S E S E   Q  S S S S S S S S S S E
|----0---0-3p0---0-0-0-|-0--0---------------------|
|-0--0-x-0-0---x-3-0-0-|-0--0-0-------------------|
|-1--1-x-1-1---x-1-1-2-|-1--1-1-------------------|
|-2--2-x---2---x-2-2-2-|-2--2-2-------------------|
|-2--2-----------------|-2--2---2-2---2-2---2-2---|
|-0--0-----------------|-0--0---0-0-3-0-0-3-0-0-3-|


  E                  EsusE
                                                 ~~~~~
  Q  E S S S S S E S E   Q   S S S S S S S S S S E
|----0---0-3p0---0-0-0-|-0---0-------------------------||
|-0--0-x-0-0---x-3-0-0-|-0---0-0-----------------------||
|-1--1-x-1-1---x-1-1-2-|-1---1-1-----------------------||
|-2--2-x---2---x-2-2-2-|-2---2-2-----------------------||
|-2--2-----------------|-2---2---2-2---2-2---2-2-------||
|-0--0-----------------|-0---0---0-0-3-0-0-3-0-0-3-----||
|
| Gtr III
| W                      Q.      S S S S S S S S E
|----------------------|-------------------------------||
|----------------------|-------------------------------||
|----------------------|-------------------------------||
|----------------------|-------------------------------||
|----------------------|---------2-2---2-2---2-2-------||
|----------------------|---------0-0-3-0-0-3-0-0-3b3.5-||


   Bridge
    Eadd9                      E9
    Gtr III
    Q  E S S S S S S S S S S   S S S S E E E S S S S S S
||---------------------------|---------------------------|
||o----8-----8-8-8-8---8-----|-7-7-7-7-7---7-7-7-7-7-7-0-|
||-----x-----x-x-x-x---x-----|-7-7-7-7-7---7-7-7-7-7-7-0-|
||-----6-----6-6-6-6---6-----|-6-6-6-6-6---6-6-6-6-6-6-0-|
||o--------------------------|---------------------------|
||--0----0-0---------0---0-0-|-----------0---------------|


  C5    G5  B5  F#5
  S S S E S S E S S S E S S   3x
|-----------------------------||
|-----0----------------------o||
|-----------4-4---------------||
|-5-5-------4-4---------------||
|-3-3---5-5-2-2-4-4-4-4-4-3--o||
|-------3-3-----2-2-2-2-2-----||


  Eadd9     E7+9                  E5
  E E E S S S S S S S S S S   S S S S E S S S S S S S S S S
|---------------------------|-------------------------------|
|-----8---8-8-8-8-8---8-----|-------------------------------|
|---0-x---x-7-7-7-7---7-----|-------------------------------|
|---0-6---6-6-6-6-6---6-----|---------------7-6-5-----------|
|-2-------------------------|-5h7-----2-2-2-------7-6-5-----|
|-0-----0-----------0---0-0-|-----0-0-0-0-0-------------7-5-|


  C5    G5  B5    F#5       G5
  S S S E S S S S E S S S S S
|------------------------------||
|------------------------------||
|------------------------------||
|-5-5-5-----4-4-4--------------||
|-3-3-3-5-5-2-2-2-4---4---4-5--||
|-------3-3-------2-0-2-0-2-3--||


   Chorus
    $
    E5                 G5          G
    Q  E S S E S S S S E   +E  E E S S S S E S S E
||-----------------------|-------------------------|
||o----------------------|-------------------------|
||-----------9-----------|---------4-4-4-4-4-4-4---|
||-----9-9-9-9-9-9-------|---------5-5-5-5-5-5-5-0-|
||o-2--7-7-7-7-7-7-0-0-5-|-(5)-5-5-5-5-5-5-5-5-5-0-|
||--0----------0-0-0-0-3-|-(3)-3-3-3-3-3-3-3-3-3---|


                     To Coda
  B5     F#
  E. S S S E. S S S S S S S   4x
|-------------0-----0---------||
|---------------0-----0------o||
|-4--4-4-3-3------3-----3-----||
|-4--4-4-4-4------------------||
|-2--2-2-4-4-----------------o||
|--------2-2--------------0---||


 Guitar Solo
  E5
  Gtr IV
  E.  +S  a    +T  +T  S S Q.          S  S  S
|----------------------------------------------|
|----------------------------------------------|
|-2b4-(2)-2b4==(2)r(2)p0---0----------------12-|
|------------------------2------------12-14----|
|-------------------------------------12-------|
|----------------------------------------------|
|
| Gtr III
| Q             E.         S  E S S S  S  S  S
|----------------------------------------------|
|----------------------------------------------|
|-9-------------9----------9--9-9-9-9--9--9--9-|
|-9-------------9----------9--9-9-9-9--9--9--9-|
|-7-------------7----------7--7-7-7-7--7--7--7-|
|-0-------------0----------0--0-0-0-0--0--0--0-|


                                               C5    G   B5    F#
         ~~~~                                         ~~~       ~~~
   Q     Q      a S S S S a    +S  +T  T S S    E.    E.  E.    E.    +Q
|--------------------------------------------|-15--------14-----------------------|
|--------------------------------------------|-------15--------14----(14)--------|
|-----------------------0-2b3==(2)r(2)p0-----|------------------------------------|
|-14---[14]---------0-2------------------2---|------------------------------------|
|---------------0h2------------------------0-|------------------------------------|
|--------------------------------------------|------------------------------------|
|
|  E E   E  S S   S S E         S   S    S S    S  E  E.  S  E  S  E   S   S S S
|--------------------------------------------|------------------------------------|
|--------------------------------------------|------------------------------------|
|--9-9---9--9-9---9-9-9---------9---9----9---|--5--5--4---4--4--3--3---3---3-3-3--|
|--9-9---9--9-9---9-9-9---------9---9----9---|--5--5--5---4--4--4--4---4---4-4-4--|
|--7-7---7--7-7---7-7-7---------7---7----7-0-|--3--3--5---2--2--4--4---4---4-4-4--|
|--0-0---0--0-0---0-0-0---------0---0----0-0-|--------3---------2--2---2---2-2-2--|


  E5
                       

ĂŽnscrie-te la newsletter


Like us on Facebook