Roadhouse Blues Bass Tab - Creed






Band- Creed
Song- Roadhouse Blues
Tuning- Drop D

Verse Riff 1:
                     |-3-|
|---------------------------|
|*-------------------6-7-8-*|
|*-7---7-7---7-7---7-------*|
|---------------------------|
   1 & a 2 & a 3 & a 4 & a

Verse Riff 2:

|-------------------------|
|*-------------------6h7-*|
|*-7---7-7---7-7---7-----*|
|-------------------------|
   1 & a 2 & a 3 & a 4 &

"Roll Baby Roll.." 
 |-3-| |-3-| |-3-| |-3-|
|-------------------------|-------------------------|
|*-------------------4---*|-------------------------|
|*-------4---4-7---7---7-*|-------------------------|
|--5---5------------------|-7-7-7-7-7-7-7-7-7-7-7-7-|
   1 & a 2 & a 3 & a 4 &    1 & a 2 & a 3 & a 4 & a

|-------------|
|-------------|
|-5-5-4-------|
|-------7-r-r-|
  1 & 2 & 3 4

"Save Our City" 

|-------9---9-7-------|
|---------------9-7---|
|-7---7-------------9-|
|---------------------|
  1 & a 2 & a 3 & 4 &

ĂŽnscrie-te la newsletter


Like us on Facebook