Six Feet From The Edge Tab - Creed






     six feet from the edge - Creed
------------------------------------------------------------------------------- this is 
awsome song by creed its my first tab and if you have any corrections feel free to email me

i couldnt figuer out the bridge just yet so hand tight.
Tabbed by:JK63
Email:JRK-1993@hotmail.com

Tuning: standard

intro/verse Riff

e|-2---5--0h2-------------------------------------------------3-2----------|
B|-----------3---2h3-5--2h3p2h3--------3--2h3-------------3----------------|
G|---------------------------------4-----------4------0----2---------------|
D|-0--0--0---------------------------------------4-----0-------------------|
A|-------------0----0-----------0--2-2--2-----------2----------------------|
E|-------------------------------------------------3-----------------------|

e|-2---3-2-0h2-------------------------------2----------------3------------|
B|------------3---------2---2h3p2--------------2----------------3----------|
G|--------------------2---2---------0------4------4---------------0--------|
D|-0-0--0-0---------2--------------4-----4----------4------0---------------|
A|--------------4-0--------------------2-----------------2-----------------|
E|-----------------------------------------------------3-------------------|

Chorus:

D        F#     Bm            G
hold, me now im six feet from the edge and im thinking
D     F#            Bm     G
maybe six feet aint so far down


 Outro
e|-2---5--0h2-------------------------------------------------3-2----------|
B|-----------3---2h3-5--2h3p2h3--------3--2h3-------------3----------------|
G|---------------------------------4-----------4------0----2---------------|
D|-0--0--0---------------------------------------4-----0-------------------|
A|-------------0----0-----------0--2-2--2-----------2----------------------|
E|-------------------------------------------------3-----------------------|

it goes:

into Riff X1
Verse Riff X2
Chorus X1
Verse Riff X2
Chorus X2
Bridge
Chorus X2
Ouro Riff X1

ĂŽnscrie-te la newsletter


Like us on Facebook