Stand Here With Me Bass Tab - Creed






Verse:
G------------------------------------------------------------------------
D------------------------------------------------------------------------
A-0-00-0-0-5--4---------------2--0---------------------------------------
D---------------------5-55-5-5--------0-00-0-0h5--4---0-00-0-0h5--4------

Chorus:
G-----------------------------------------------------------------------------------
D-----------------------------------------------------------------------------------
A-----------------------------------------------------------------------------------
D-0`--------------------------------------------------------------------------------

G---------------------------------------------------------------------------
D---------------------------------------------------------------------------
A--3333333333333------1111--------------------------------------------------
D---------------0---------0--------3-3-0-3/5-55-0-00-555-0-00-3/5-(55)------

Ending:
G------------------------------------------------------------------------------
D------------------------------------------------------------------------------
A-0-00-0-0-5--4---------------2--0---------------------------------------------
D---------------------5-55-5-5--------0-00-0-0h5--4----------------------------

Order:
Verse: 5
Chorus: 2
Verse: 5
Chorus: 2 (then 2 more times behind solo)
Ending: 6 (first 2 times behind solo)

ĂŽnscrie-te la newsletter


Like us on Facebook