Stand Here With Me Solo (ver3) Tab - Creed






----------------------------------------------------------------------------
     STAND HERE WITH ME - Creed
----------------------------------------------------------------------------
Tabbed by:DJ_Inferno2000
Email:DJ_Inferno2000@hotmail.com

Tuning: e B G D A D

This is a great song on the solo is fairly simple.


e|---------------------------------------------------------------|
B|--------9(b)-7~--7-7-10-7~~------7-10-7-10-7-5-7-5-2-0---------|
G|---------------------------------------------------------------|
D|--12------------------------10-------------------------------|
A|--12------------------------10-------------------------------|
D|--12------------------------10-------------------------------|

e|---------------------14b-15b-13~~--13-10-12----10--------------|
B|--------------------------------------------13----13b-13b13~~--|
G|---------------------------------------------------------------|
D|--5-4-5-4-5-4--------------------------------------------------|
A|---------------5-----------------------------------------------|
D|---------------0-----------------------------------------------|


e|---------------------------------------------------------------|
B|---------------------------------------------------------------|
G|--9-10-12-10-9-10----9-------------------10--------------10/---|
D|------------------12---10-12------10-12----12-10-12p.h.--------|
A|---------------------------------------------------------------|
D|-------------------------------------------------------------

ĂŽnscrie-te la newsletter


Like us on Facebook