Weathered (ver4) Tab - Creed






Author/Artist: Creed
Title: Weathered
Album: Weathered
Transcribed by: Steve Dubuque
Email: stevedubuque@hotmail.com
Tuning: DADADD

This is almost perfect. There are little fills during the verse that I 
didnt 
bother to put in, but they're not difficult to figure out. Remember the 
tuning is DADADD.

Verse

-3p0----------------------0--------------2p0--2/4--0---0-------
-------0---0---0-----------------------------------------------
-----0-----------0-----------------------------------3---------
-------------------0---------0-3/53-0-------------------------
-3-------3---2-------------------------------------------------
-----------------------3/5-------------0-----------------------

-3p0----------------------0-------------------(14)-------------
-------0---0---0-------------------------(12)-(12)-------------
-----0-----------0-----------------------(12)------------------
-------------------0---------0-3/53-0-------------------------
-3-------3---2-------------------------------------------------
-----------------------3/5-------------0-----------------------

Chorus

---------------------------------------------------------------
---------------------------------------------------------------
-----------------3/5--3-x--0-----------------------------------
-0------8----3---x/x--x-x--9-----------------------------------
-0------8----3---3/5--3-x--8----------8-------8-------8--------
-0------8----3-------------9--8-8-8-8-8-8-8-8-8-8-8-8-8-8-8-8--

---------------------------------------------------------------
---------------------------------------------------------------
---------------------------------------------------------------
---------------5p3--0--3---------------------------------------
--------5-5-5--5p3--0--3---------------------------------------
5-5-5-5-5-5-5--5p3--0--3---------------------------------------

Breakdown

---------------------------------------------------------------
---------------------------------------------------------------
-5-----5-----5-----5-----5h6-5---------------------------------
-x-----x-----x-----x-----x---x---------------------------------
-5-----5-----5-----5-----5---5---------------------------------
-0-0-0-0-0-0-0-0-0-0-0-0-0---0---------------------------------

---------------------------------------------------------------
---------------------------------------------------------------
-1-----1-----1-----1-----1h3-1---------------------------------
-x-----x-----x-----x-----x---x---------------------------------
-1-----1-----1-----1-----1---1---------------------------------
-0-0-0-0-0-0-0-0-0-0-0-0-0---0---------------------------------

---------------------------------------------------------------
---------------------------------------------------------------
-0-----0-----0-----0-----0-0-----------------------------------
-0-----0-----0-----0-----0-0-----------------------------------
-0-----0-----0-----0-----0-0-----------------------------------
-0-0-0-0-0-0-0-0-0-0-0-0-0-0-----------------------------------

---------------------------------------------------------------
---------------------------------------------------------------
-1-----1-----1-----1-----1-1-----------------------------------
-x-----x-----x-----x-----x-x-----------------------------------
-1-----1-----1-----1-----1-1-----------------------------------
-0-0-0-0-0-0-0-0-0-0-0-0-0-0-----------------------------------

Later, strum these following chords

-7---3---------------------------------------------------------
-7---3---------------------------------------------------------
-5---1---------------------------------------------------------
-0---0---------------------------------------------------------
-5---1---------------------------------------------------------
-0---0---------------------------------------------------------

The part where he ends the breakdown and says "To fight"

---------------------------------------------------------------
---------------------------------------------------------------
---------------------------------------------------------------
-8--5--5p3-0-3-------------------------------------------------
-8--5--5p3-0-3-------------------------------------------------
-8--5--5p3-0-3-------------------------------------------------

Lyrics:

I lie awake on a long, dark night
I cant seem to tame my mind
Slings and arrows are killing me inside
Maybe I cant accept the life thats mine
No I cant accept the life thats mine

Simple living is my desperate cry
Been trading love with indifference
yeah it suits me just fine
I try to hold on but Im calloused to the bone
Maybe thats why I feel alone
Maybe thats why I feel so alone

MeIm rusted and weathered
Barely holding together
Im covered with skin that peels and
it just wont heal

The sun shines and I cant avoid the light
I think Im holding on to life too tight
Ashes to ashes and dust to dust
Sometimes I feel like giving up
Sometimes I feel like giving up

MeIm rusted and weathered
Barely holding together
Im covered with skin that peels
and it just wont heal

The day reminds me of you
The night hides your truth
The earth is a voice
Speaking to you
Take all this pride
And leave it behind
Because one day it ends
One day we die
Believe what you will
That is your right
But I choose to win
So I choose to fight
To fight

ĂŽnscrie-te la newsletter


Like us on Facebook