Whats This Life For (ver9) Tab - Creed






 what's this life for tab by creed

     version classic guitar




|------------------------0---------------------|
|--0h1-----1p0---0-----0---0---3-1-1p0---------|
|------0-------2---2-0-------0---------2p0-----|
|-------0--------------------------------------|
|--------------2-----3---------3---------------|
|--3-------------------------------------------|

|------------------------0---------------------|
|--0h1-----1p0---0-----0---0---3-1-1p0---------|
|------0-------2---2-0-------0---------0h2-----|
|-------0--------------------------------------|
|--------------2-----3---------3---------------|
|--3-------------------------------------------|

|--0--------------------------------------------------------|
|--0----0h1p0-------0-0h1-----1-------1-0-3-1-0-------0-----|
|-------------2---2-------0---------0-----------0h3p0---2---|
|---------------2-----------0---0h2-------------------------|
|--0------------------3-------------------------------------|
|---------------------------------------3-------------------|

|-----------|--------------------|
|-----3-0---|--0----0--0-----1---|
|--0--------|--------------------|
|-----------|--------------------|
|-----------|--3/5--3--3-2-0-0---|
|--1--------|--------------------|

 
|--0--------------0--------------|
|----0--------------0------------|
|------5-7-710-9-----9-9-7--5---|
|--------------------------------|
|--------0-0----0-----0-0-0--0---|
|--------------------------------|

|--0--------------0--------------|
|----0--------------0------------|
|------5-7-79-9------9-9-7--5---|
|--------------------------------|
|--------0-0---0------0-0-0--0---|
|--------------------------------|

|---0-----------0-----0-------|
|-----0-----------0-----0-----|
|-------5-5-4-2-----2-----2---|
|-----------------------------|
|-------0-0-0-0---------------|
|-----------------------------|





  steve...          pompom020366@hotmail.com         pompom@sympatico.ca

ĂŽnscrie-te la newsletter


Like us on Facebook