Whos Got My Back Bass Tab - Creed






Band- Creed
Song- Whos Got My Back

drop 4th to d.

Intro (0:06)
g------(9)-------------|
d-(5)-------(5)---(7)--|
a----------------------|
d----------------------| x6

Riff #1 (0:34)    Fill #1
g------------------------------------------|-----|
d------------------------------------------|-----|
a----------3--------3~~-------3~~-------|3~~-|
d-2-4345~-----2-4345~----2-4345~----2-4345~|-----|

Riff #1(0:43)    Fill #2
g------------------------------------------|-----|
d------------------------------------------|-----|
a----------3--------3~~-------3~~-------|33---|
d-2-4345~-----2-4345~----2-4345~----2-4345~|-----|

Riff #1 (0:51)    Fill #3
g------------------------------------------|-----|
d------------------------------------------|-----|
a----------3--------3~~-------3~~-------|-----|
d-2-4345~-----2-4345~----2-4345~----2-4345~|\~~-|

Riff #1 (1:01)    Fill #4
g------------------------------------------|-----|
d------------------------------------------|-----|
a----------3--------3~~-------3~~-------|-----|
d-2-4345~-----2-4345~----2-4345~----2-4345~|~~~~~|

Riff #2 (1:10)
g--------------------------------------------------|
d--------------------------------------------------|
a--------------------------------------------------|
d-8~8~10~~~----8~8~10~~~----8~8~10~~~----8~8~10~~~-|

Riff #3 (1:19)
g-------------------------------------------------------------|
d-----10~~---------9~~9-7h97--------10~~---------10~~---------|
a-3~\-----333-3~\---7-----99\3~\-----333-3~\-----333-3~~-|
d-------------------------------------------------------------|

Riff #1 (1:38)    Fill #3
g------------------------------------------|-----|
d------------------------------------------|-----|
a----------3--------3~~-------3~~-------|-----|
d-2-4345~-----2-4345~----2-4345~----2-4345~|\---|

Riff #1(1:46)    Fill #4
g------------------------------------------|-----|
d------------------------------------------|-----|
a----------3--------3~~-------3~~-------|-----|
d-2-4345~-----2-4345~----2-4345~----2-4345~|~~~~~|

Riff #2 (1:55)
g--------------------------------------------------|
d--------------------------------------------------|
a--------------------------------------------------|
d-8~8~10~~~----8~8~10~~~----8~8~10~~~----8~8~10~~~-|

Riff #4 (2:04)
g-------------------------------|
d-----10~~---------9~~9-7h97----|
a-3~\-----333-3~\---7-----99\|
d-------------------------------| x3

Riff #5 (2:30)
g--------------------------------------------------|
d-----10~~-----------------------------------------|
a-3~\-----333-3~\--------------------------------|
d------------------2~~~---222~~~---222~~~---222~~~-|

Interlude (2:43)
g-(7)\---------|
d-------(7)\---|
a----------------|
d----------------| x4

Interlude 2 (3:03)
g-(7)---(7)----|
d----(7)-------|
a--------------|
d--------------| x4

Riff #6 (3:48)    Fill #5
g------------------------------------------|-----|
d------------------------------------------|-----|
a------------------------------------------|3b---|
d-2-4345~-----2-4345~----2-4345~----2-4345~|-----|

Riff #6(3:57)    Fill #25
g------------------------------------------|-----|
d------------------------------------------|-----|
a------------------------------------------|3b---|
d-2-4345~-----2-4345~----2-4345~----2-4345~|-----|

Riff #7 (4:04)
g----------------------------------------|
d----------------------------------------|
a----------------------------------------|
d-8~8~10~~~-10101010-8~8~10~~~-10101010--| x2

Riff #8 (4:13 to 4:53) Ending
g-------------------|
d-----10~~-/7/54----|
a-3~\--------------|
d-------------------| repeat a lot of time.

ĂŽnscrie-te la newsletter


Like us on Facebook