Bad Moon Rising (ver2) Tab - Creedence Clearwater Revival






Intro/Verses
e----------------------------------------------------
b----------------------------------------------------
g----7----7-7----7-7------------7-7---7-7-7-7-7-7-7-7
d----7----7-7----7-7----7----5--7-7---7-7-7-7-7-7-7-7
a----5----5-5----5-5----7----5--5-5---5-5-6-5-5-6-5-6
e---------------------5-5--3-3-----------------------

Chorus
e-----------------------------------------------------
b-----------------------------------------------------
g----7-7-7-7-7-7-7----------------------------------5-
d----7-7-7-7-7-7-7---7-7-7-7-7-7-7---5-5-5-5-5-5-5--5-
a----5-5-5-5-5-5-5---7-7-7-7-7-7-7---5-5-5-5-5-5-5--3- repeat
e--------------------5-5-5-5-5-5-5---3-3-3-3-3-3-3---- again

This riff is in the greatest hits version
e-----------------0---------------------------
b-----------------5p3-------------------------
g--------6-7-7----------7-7-6------6b9-6------
d--7-9-9----------------------7-7~-------7-7~~
a---------------------------------------------
e---------------------------------------------

ĂŽnscrie-te la newsletter


Join the ranks ! LIKE us on Facebook