Crimewave Tab - Crystal Castles




Capo on 4th fret


    Em                                        C
e|-----------------------------------------------------------------------------|
B|---------0----------0--------0---------0------------1-------1------1-----1---|
G|-----------------------------------------------------------------------------|
D|----2----------2---------2---------2-----------------------------------------|
A|-----------------------------------------------3-------3-------3------3------|
E|-----------------------------------------------------------------------------|
    Eyes lit                                 I want short breaths



    Am                                        Bm
e|-----------------------------------------------------------------------------|
B|---------1----------1--------1---------1------------3-------3------3-----3---|
G|-----------------------------------------------------------------------------|
D|-----------------------------------------------------------------------------|
A|----0----------0---------0---------0------------4-------4------4------4------|
E|-----------------------------------------------------------------------------|
  I found dark eye lids                           Nananana-nana
ĂŽnscrie-te la newsletter


Join the ranks ! LIKE us on Facebook