Baby Hates Me Bass Tab - Danko Jones






Danko Jones
Baby Hates Me
Standard tuning

It's not hard to play, but this song is great! I've written
it all down, but you can also look at the order. Have fun!

Intro 2x (first rest)
|----------------|----------------|
|------22--------|----------------|
|44-22-----------|----------------|
|---------2222-4~|~~~~~~~~~~~~~~~~|

|----------------|
|----------------|
|2---------------|
|--2-4-----------| 4x

Verse 4x all 4

|----------------|2x|----------------|----------------|
|----------------|2x|----------------|----------------|
|2---------------|2x|2---4-----------|2---------------|
|--2-4-----------|2x|--4-------------|--2-4-----------|

Chorus Part1

|----------------|7x|----------------|
|----------------|7x|----------------|
|2---4-----------|7x|---4-4-4--22222-|
|--2---4-4-4-4-4-|7x|4---------------|

Chorus Part2A 4x
Play between the brackets() on the 2nd and 3rd time

|----------------|-------------------|
|------2-2-----2-|-------------------|
|2-2-2-----------|-------------------|
|----------------|2-2-4-------(2-4-2)|

Post-Chorus

|----------------|----------------|
|------22--------|----------------|
|44-22-----------|----------------|
|---------2222-4~|~~~~~~~~~~~~~~~~|

Verse 2x all 4

|----------------|2x|----------------|----------------|
|----------------|2x|----------------|----------------|
|2---------------|2x|2---4-----------|2---------------|
|--2-4-----------|2x|--4-------------|--2-4-----------|

Chorus Part1

|----------------|7x|----------------|
|----------------|7x|----------------|
|2---4-----------|7x|---4-4-4--22222-|
|--2---4-4-4-4-4-|7x|4---------------|

Chorus Part2B
 ________________4x______________..._______________2x______________
/................................ /...............................
|----------------|----------------|----------------|----------------|
|------2-2-----2-|----------------|------2-2-2-2-2-|----------------|
|2-2-2-----------|----------------|2-2-2-----------|----------------|
|----------------|2-2-4---X-X-X-X-|----------------|2-2-4-4-4-4-4-4-|

Bridge

|----------------|----------------|
|------22--------|----------------|
|44-22-----------|----------------|
|---------2222-4~|~~~~~~~~~~~~~~~~|

|----------------|----------------|2x
|----------------|----------------|2x
|----------------|----------------|2x
|----------------|----------------|2x


|----------------|----------------|3x|----------------|
|------22--------|----------------|3x|------22--------|
|44-22-----------|----------------|3x|44-22-----------|
|---------2222-4~|~~~~~~~~~~~~~~~~|3x|---------2222-4-|


Outro

 _______________2x_______________
/................................
|----------------|----------------|
|----------------|----------------|
|----------------|----------------|
|----------------|----------------|

 ________________2x______________...______________5x_______________
/................................ /...............................
|----------------|----------------|----------------|----------------|
|------2-2-----2-|----------------|------2-2-2-2-2-|----------------|
|2-2-2-----------|----------------|2-2-2-----------|----------------|
|----------------|2-2-4---X-X-X-X-|----------------|2-2-4-4-4-4-4-4-|


|----------------|----------------|
|------2-2-2-2-2-|----------------|
|2-2-2-----------|----------------|
|----------------|2-2-4-----------|

ORDER:

Intro 2x
Verse 4x
Chorus Part1
Chorus Part2A 4x
Post-Chorus
Verse 2x
Chorus Part1
Chorus Part2B
Bridge
Outro






Like us on Facebook