Bounce (ver3) Bass Tab - Danko Jones






my first tab here just a song that i know. yeah the other tabs just didn't sound right 
me.

(intro)00:07
|------------------------------------------------|
|------------------------------------------------|
|---9h11-11-11-----11-9r-------------------------|
|-------------------------9-7r----2r----7------| 3x

(chorus)00:26
|----------------------------------------|
|----------------------------------------|
|--55-55-55-55-55-55-55-55-55-55-55-55---|
|----------------------------------------|

 00:33
|----------------------------------------|
|----------------------------------------|
|----------------------------------------|
|---3r-----------------------------------|

 00:36
|----------------------------------------|
|----------------------------------------|
|--55-55-55-55-55-55-55-55-55-55-55-55---|
|----------------------------------------|

 00:46
|----------------------------------------|
|----------------------------------------|
|----------------------------------------|
|---3r-----------------------------------|

 00:49
|----------------------------------------|
|----------------------------------------|
|--55-55-55-55-55-55-55-55-55-55-55-55---|
|----------------------------------------|

 00:52
|--------------------------|
|--------------------------|
|---3-2-3-2-3-2-3-2--------|
|--------------------------|

 00:56
|--------------------------|
|--------------------------|
|--55-55-55-55-55-55-55-55-|
|--------------------------|

 00:59
|--------------------------|
|--------------------------|
|---3-2-3-2-3-2-3-2--------|
|--------------------------|


 01:03
|----------------------------------------|
|----------------------------------------|
|--55-55-55-55-55-55-55-55-55-55-55-55---|
|----------------------------------------|

 01:13
|----------------------------------------|
|----------------------------------------|
|----------------------------------------|
|---3r-----------------------------------|

 01:16
|----------------------------------------|
|----------------------------------------|
|--55-55-55-55-55-55-55-55-55-55-55-55---|
|----------------------------------------|

 01:26
|----------------------------------------|
|----------------------------------------|
|----------------------------------------|
|---3r-----------------------------------|

 01:29
|----------------------------------------|
|----------------------------------------|
|--55-55-55-55-55-55-55-55-55-55-55-55---|
|----------------------------------------|

 01:33
|--------------------------|
|--------------------------|
|---3-2-3-2-3-2-3-2--------|
|--------------------------|

 01:36
|--------------------------|
|--------------------------|
|--55-55-55-55-55-55-55-55-|
|--------------------------|

 01:39
|--------------------------|
|--------------------------|
|---3-2-3-2-3-2-3-2--------|
|--------------------------|

 01:43 (keep going through the guitar solo)
|----------------------------------------|
|----------------------------------------|
|--55-55-55-55-55-55-55-55-55-55-55-55---|
|----------------------------------------|

 01:59
|--------------------------|
|--------------------------|
|---3-2-3-2-3-2-3-2--------|
|--------------------------|

 02:02
|--------------------------|
|--------------------------|
|--55-55-55-55-55-55-55-55-|
|--------------------------|

 02:06
|--------------------------|
|--------------------------|
|---3-2-3-2-3-2-3-2--------|
|--------------------------|

 02:09
|----------------------------------------|
|----------------------------------------|
|--55-55-55-55-55-55-55-55-55-55-55-55---|
|----------------------------------------|


 02:19
|----------------------------------------|
|----------------------------------------|
|----------------------------------------|
|---3r-----------------------------------|

 02:22
|----------------------------------------|
|----------------------------------------|
|--55-55-55-55-55-55-55-55-55-55-55-55---|
|----------------------------------------|

 02:33
|----------------------------------------|
|----------------------------------------|
|----------------------------------------|
|---3r-----------------------------------|


 02:36
|--------------------------|
|--------------------------|
|--55-55-55-55-55-55-55-55-|
|--------------------------|


 02:39
|--------------------------|
|--------------------------|
|---3-2-3-2-3-2-3-2--------|
|--------------------------|

 02:43
|--------------------------|---------------------------|
|--------------------------|---------------------------|
|---3-2-3-2-3-2-3-2--------|-55-55-55-55-55-55-55-55-55|
|--------------------------|---------------------------|
(Reapeat till the end of the song)


pretty easy song you just need to work on the timming and even put in your own little 
in if you fell like you need to.






Like us on Facebook