Had Enough Tab - Danko Jones






"Danko Jones" - "Had Enough" from the "Below the Belt" record

Tabbed by Tilt_Mode
enjoy

INTRO:
E|----------------------------------|
B|----------------------------------|
G|----------------------------------|
D|-------------------------------8--|
A|-----8-----9-----8-----9-------8--|
E|-6-6---6-6---6-6---6-6----6-6--6--|
PM . .   . .   . .   . .    . .

E|----------------------------------|
B|----------------------------------|
G|----------------------------------|
D|--------------------------11--6---|
A|-----8-----9-----8--------11--6---|
E|-6-6---6-6---6-6---6-6-6---9--4---|
PM . .   . .   . .   . . .   
Verse:

E|------------------|
B|------------------|
G|------------------|
D|-8------4---------|
A|-8(32x)-4(32x)----|
E|-6------2---------|

   last time
E|------------------|
B|------------------|
G|------------------|
D|-8------4------6~-|
A|-8(32x)-4(24x)-6~-|
E|-6------2------4~-|

Chorus:
E|-----------------------------|
B|-----------------------------|
G|---------------6-------------|
D|-8------4------6(16x)-6------|
A|-8(16x)-4(16x)-4------6(16x)-|
E|-6------2-------------4------|

Bridge:
E|---------------------------------------------------|
B|---------------------------------------------------|
G|-10(16x)--6--11-11-11-11-10-10-10-10-8-8-8-8-6-6-6-| 
D|---------------------------------------------------|  
A|---------------------------------------------------|
E|---------------------------------------------------| 
                                                         Played
E|---------------------------------------------------|  /  twice
B|---6-----------------------------------------------| /
G|-8---8-6-6-6-6-6-6-6-6-----------------8-8-8-8-6~--|/
D|-----------------------6-6-6-6-8-8-8-8-------------|
A|---------------------------------------------------|
E|---------------------------------------------------|

sort of prechorus
E|---------------------------------------------------|
B|---------------------------------------------------|
G|-6------------6------------6-----------------------|
D|-6--8--6--8---6--8--6--8---6--8--6--8----4--2------|
A|-4--8--6--8---4--8--6--8---4--8--6--8----4--2------|
E|----6--4--6------6--4--6------6--4--6----2--0------|

rate the s**t out of this one






Like us on Facebook