I Want You (ver2) Tab - Danko Jones






Band: Danko Jones
Song: I Want You

Standard Tuning

Theres only 3 Riffs to this song. It's almost blunt, like an Andrew W. K. song. God 
he's great, but anyways, heres my tab.

Intro
e|-----------------|
B|-----------------|
G|-----6-6-4-4-6-4-|
D|-6-6-6-6-4-4-6-4-|
A|-6-6-4-4-2-2-4-2-|
E|-4-4-------------|

This is the "You got to say........." part.
e|-----------------------------------------------------------------|
B|-----------------------------------------------------------------|
G|-----------------------------------------------------------------|
D|-----------------------------------------------------------------|
A|-0-9-9-9-9-9-9-9-0-7-7-7-7-7-7-7-0-5-5-5-5-5-5-5-0-6-6-6-6-6-6-6-|
E|-----------------------------------------------------------------|

Other Riff
e|-------------|
B|-------------|
G|-----4-4-6-6-|
D|-6-6-4-4-6-6-|
A|-6-6-2-2-4-4-|
E|-4-4---------|]
Thats the whole song besides the basse riff. Enjoi.






Like us on Facebook