I Want You Tab - Danko Jones






------------------------------Danko Jones - I Want You---------------------

Tabbed by: Meloz
E-mail: Melozl@yahoo.it

Intro:

e|-----------|-----------------------------|
B|-----------|-----------------------------|
G|-----------|-----------------------------|
D|---4--4----|---9--9---7--7---9--7--------|
A|---4--4----|---9--9---7--7---9--7--------|
E|---2--2----|---7--7---5--5---7--5--------|

                                X=8
Chords

e|------------------------------------|
B|------------------------------------|
G|-------------------4--4---7--7------|
D|---4--4-----2--2---4--4---7--7------|
A|---4--4-----2--2---2--2---5--5------|
E|---2--2-----0--0--------------------|






Like us on Facebook