LoverCall Bass Tab - Danko Jones






artist: Danko Jones
song: Lovercall
tabbed by: Malin [oxygen@placebo.nu]

intro + verse

G|------------------
D|---5--------------
A|-----5-4----------
E|-4-------4-2-4-4--

G|------------------
D|---5--------------
A|-----5-4----------
E|-4-------4-2-4----


chorus

G|------------------
D|------------------
A|-3333---000-------
E|------3-----------

G|------------------
D|------------------
A|-3333---00--------
E|------3-----------


during guitar solo

G|----------------------
D|---5------------------
A|-----5-4--------------
E|-4-------4-2-4-4--444-

G|----------------------
D|---5------------------
A|-----5-4--------------
E|-4-------4-2-4---4----


verse
chorus
guitar solo

end

G|-----------------------
D|---5-------------------
A|-----5-4---------------
E|-4-------4-2-4---------






Like us on Facebook