Sleep Is The Enemy Bass Tab - Danko Jones






Danko Jones
Sleep is the enemy
Album: Sleep is the enemy (Track 11)
Tabber: Marnix Kraus

|--------|
|--REST--|
|--------|
|--------| This is just a half, not a whole.


Verse

|----------------|8x|----------------|2x|----------------|8x|
|----------------|8x|----------------|2x|----------------|8x|
|----------------|8x|3-3-3-3-3-3-3-3-|2x|----------------|8x|
|3-2-2-2-2-2-2-2-|8x|----------------|2x|3-2-2-2-2-2-2-2-|8x|

Pre-Chorus

|----------------|4x|
|----------------|4x|
|3-3-3-3-3-3-3-3-|4x|
|----------------|4x|

Chorus

|----------------|----------------|----------------|
|----------------|----------------|------REST------|  4x
|----------------|----------------|----------------| /
|3-3-3-2-----3---|2---2---3-3-3-2-|----------------|/

Verse

|----------------|8x|----------------|2x|----------------|8x|
|----------------|8x|----------------|2x|----------------|8x|
|----------------|8x|3-3-3-3-3-3-3-3-|2x|----------------|8x|
|3-2-2-2-2-2-2-2-|8x|----------------|2x|3-2-2-2-2-2-2-2-|8x|

Pre-Chorus

|----------------|4x|
|----------------|4x|
|3-3-3-3-3-3-3-3-|4x|
|----------------|4x|

Chorus

|----------------|----------------|----------------|
|----------------|----------------|------REST------|  4x
|----------------|----------------|----------------| /
|3-3-3-2-----3---|2---2---3-3-3-2-|----------------|/

Bridge

|----------------|8x|
|------REST------|8x|
|----------------|8x|
|----------------|8x|


Second part of the song

|----------------|----------------|
|----------------|----------------|  8x
|----------------|----------------| /
|3-2-2-2-2-2-2-2-|2-2-2-3---3---2-|/

|----------------|----------------|
|----------------|----------------|  2x
|----------------|----------------| /
|3-3-3-2~~~2-3-3-|3-2~~~2-0~~~2~~~|/

|----------------|----------------|----------------|
|----------------|----------------|------REST------|  3x
|----------------|----------------|----------------| /
|3-3-3-2-2-2-3-3-|2-2-0-0-3-3-3-2-|----------------|/

|----------------|12x|
|----------------|12x|
|----------------|12x|
|3-2-2-2-2-2-2-2-|12x|

|----------------|4x|
|----------------|4x|
|3-3-3-3-3-3-3-3-|4x|
|----------------|4x|

|----------------|
|----------------|
|----------------|
|2~~~------------|

That's it. Have fun. Someone make a guitar tab as well please, that would be cool.
Greetz, Marnix

Place comments!






Like us on Facebook