Demons Intro Tab - Darkest Hour




Tuning:drop C
guitar 1
|---------------------------------------------------------------------------------|
|---------------------------------------------------------------------------------|
|---------------------------------------------------------------------------------|
|----6~--------2~-----------------------------------------------------------------|
|----6~--------2~-----------------------------------------------------------------|
|----6~--------2~-----------------------------------------------------------------|

guitar 2
|---------7~------7---7--------------------------------------------------------------|
|-----4-5-----4-5---4---5-4----------------------------------------------------------|
|------------------------------------------------------------------------------------|
|------------------------------------------------------------------------------------|
|------------------------------------------------------------------------------------|
|------------------------------------------------------------------------------------|

ĂŽnscrie-te la newsletter


Join the ranks ! LIKE us on Facebook