Your Guts My Glory Intro Tab - Darkest Hour




-------------------------------------------------------------------------------
     Your Guts My Glory - The Darkest Hour
-------------------------------------------------------------------------------
Tabbed by: Fallendemon5
Email: cvballa008@aol.com

Tuning: D A D G B E

Beginning of the song is played with

      *This riff is played twice*
e|----------------------------------------------------------------------------|
B|----------------------------------------------------------------------------|
G|-----------------------------------3/5--------5/7--------7/9----------------|
D|-----0---3-6-5-3-0-----------------3/5--------5/7--------7/9----------------|
A|-----0---3-6-5-3-0-----------------1/3--------3/5--------5/7----------------|
D|-----0---3-6-5-3-0---0-0-0-0-0-0--------0-0--------0-0---------0-0-0-0-0-0--|
                       x x x x x x        x x        x x         x x x x x x

  *Both guitars come in this part and play together*
e|------------------------------------------------------------------|
B|------------------------------------------------------------------|
G|------------------------------------------------------------------|
D|----------0-0-1--0-0-1--0-0-1--0-0-1--0-0-1--0-0-1--0-0-1--0-0----|
A|----------0-0-1--0-0-1--0-0-1--0-0-1--0-0-1--0-0-1--0-0-1--0-0----|
D|--12/1----0-0-1--0-0-1--0-0-1--0-0-1--0-0-1--0-0-1--0-0-1--0-0-1--|
            x x    x x    x x    x x    x x    x x    x x    x x +

ĂŽnscrie-te la newsletter


Join the ranks ! LIKE us on Facebook