In The Shadows Of The Horns Bass Tab - Darkthrone




E,A,D,G
Riff1 
G|-------------------------|
D|-------------------------|
A|-------------------------|
E|-8-7-5-5-5-5-5-5-5-5-8-7-|

G|-----------------------------|
D|-----------------------------|
A|-----------------------------|
E|-3-4-3-0-0-0-0-0-0-0-0-3-4-3-|

Riff2
G|--------------------------------------|
D|--------------------------------------|
A|--------------------------------------|
E|-7-1-1-1-1-1-1-1-1-/7-7-7-7-7-7-7-7-7-|

G|-----------------|
D|-----------------|
A|-----------------|
E|-1-1-1-1-1-1-1-7-|

Riff3
G|-----------------------------------|
D|-----------------------------------|
A|-----------------------------------|
E|-4-5-5-5-5-5-5-5-5-4-5-5-5-5-5-5-5-|

G|-------------------------------|
D|-------------------------------|
A|-------------------------------|
E|-4-4-4-4-4-4-4-4-7-6-7-6-6-6-6-|

Înscrie-te la newsletter


Join the ranks ! LIKE us on Facebook