Your Emotions Bass Tab - Dead Kennedys






Your Emotions by Dead Kennedys
tabbed by: valerie l.
e-mail: iloled@yahoo.com

Intro
G|------------------------------------|
D|---------------5-3-2-02-0--5-3-2-0--|
A|-------4343-------------------------|
E|-33-66------6-----------------------|

Verse
G|------------------------------------| |-----------|
D|------------------------------------| |-----------|
A|-34--34--3-1-----------3-1----------| |-5-3-------|
E|-------------33-11-33------33-11-33-| |-----33-11-| x2

pre chorus
G|------------|
D|------------|
A|-5-3--------|
E|-----33-11-3| x2

Chorus
G|-------------------------------------------------------------------------------------|
D|------4----------2----------4-----------------------4---------2----------------------|
A|-5555---555-3333---333-5555---555-00000000-0-2-5555---555-3333--333-1111-0-1--0000-0-|
E|-------------------------------------------------------------------------------------|

intro x1
verse 
pre-chorus
chorus