I Will Follow You Into The Dark (ver4) Tab - Death Cab For Cutie






Ben Gibbard = Awesome.

I haven't seen anything on UG that's close to correct(I may haved missed it).  But 
here's my submission.
It's not the entire song, but its everything that you need to play it(very repetitive).  
listen to the track.

I tabbed this off a youtube video submitted by a user with a name like Cougarman or 
 Thanks go to him.
Video entitled: "I'll follow you into the dark - Ben Gibbard Style"

It would probably be a good idea to pay attention to the timing or it'll sound quite 
 I hope there's no errors :P

Those 3 notes together after each bass note are strummed/scratched.

*Exported from GuitarPro*

Duration Legend
---------------
Q - quarter
E - 8th


(Capo 5)

     Am                       C                        F
     Q    E  Q    E  E  E     Q    E  Q    E  E  E     Q    E  Q    E  E  E
E||------------------------|------------------------|------------------------|
B||-------x--1-------1--1--|-------x--1-------1--1--|-------x--1-------1--1--|
G||-------2-------2--2-----|-------0-------0--0-----|-------2-------2--2-----|
D||-------2----------2-----|-------2----------2-----|-------3----------3-----|
A||--0---------------------|--3---------------------|------------------------|
E||------------------------|------------------------|--1---------------------|
     p       m    i m


  C          nfc           Am                       C
  Q    E  E  Q    E  E     Q    E  Q    E  E  E     Q    E  Q    E  E  E
------------------------|------------------------|------------------------|
-------x--1-------1--1--|-------x--1-------1--1--|-------x--1-------1--1--|
-------0----------0-----|-------2-------2--2-----|-------0-------0--0-----|
-------2----------0-----|-------2----------2-----|-------2----------2-----|
--3----------2----------|--0---------------------|--3---------------------|
------------------------|------------------------|------------------------|


  G                                                 Am
  Q    E  Q    E  E  E     Q    E  Q    E  E  E     Q    E  Q    E  E  E
------------------------|------------------------|------------------------|
-------x--3-------3--3--|-------x--3-------3--3--|-------x--1-------1--1--|
-------0-------0--0-----|-------0-------0--0-----|-------2-------2--2-----|
-------0----------0-----|-------0----------0-----|-------2----------2-----|
------------------------|------------------------|--0---------------------|
--3---------------------|--3---------------------|------------------------|


  C                        E                        Am         nfc
  Q    E  Q    E  E  E     Q    E  Q    E  E  E     Q    E  E  Q    E  E
------------------------|------------------------|------------------------|
-------x--1-------1--1--|-------x--0-------x--1--|-------x--1-------1--1--|
-------0-------0--0-----|-------1-------1--1-----|-------2----------0-----|
-------2----------2-----|-------2----------2-----|-------2----------2-----|
--3---------------------|------------------------|--0---------------------|
------------------------|--0---------------------|-------------3----------|


  F               dn up    dn   dn                  C
  Q    E  Q    E  E  E     Q    E  Q    E  E  E     Q    E  E  Q    E  E
------------------------|------------------------|------------------------|
-------x--1-------1--1--|--1----x--1-------1--1--|-------x--1-------1--1--|
-------2-------2--2--2--|--2----2-------2--2-----|-------0----------0-----|
-------3----------3--3--|--3----3----------3-----|-------2----------2-----|
------------------3--3--|--3---------------------|--3---------------------|
--1---------------1--1--|--1---------------------|-------------0----------|


  Q    E  E  Q    E  E
------------------------|
-------x--1-------1--1--|
-------0----------0-----|
-------2----------2-----|
--3---------------------|
-------------0----------|


  You only play these 2 on the first time round, listen to the song.
   Q    E  E  Q    E  E     Q    E  E  Q    E  E
 ------------------------|------------------------|
 -------x--1-------1--1--|-------x--1-------1--1--|
 -------0----------0-----|-------2----------2-----|
 -------2----------2-----|-------2----------2-----|
 --3---------------------|--0---------------------|
 -------------0----------|-------------0----------|

                           Am
  Q    E  E  Q    E  E     Q    E  E  Q    E  E     Q    E  E  Q    E  E
------------------------|------------------------|------------------------|
-------x--1-------1--1--|-------x--1-------1--1--|-------x--1-------1--1--|
-------0----------0-----|-------2----------2-----|-------2----------2-----|
-------2----------2-----|-------2----------2-----|-------2----------2-----|
--3---------------------|--0---------------------|--0---------------------|
-------------0----------|-------------0----------|-------------0----------|


  F                                                 C
  Q    E  E  Q    E  E     Q    E  E  Q    E  E     Q    E  E  Q    E  E
------------------------|------------------------|------------------------|
-------x--1-------1--1--|-------x--1-------1--1--|-------x--1-------1--1--|
-------2----------2-----|-------2----------2-----|-------0----------0-----|
-------3----------3-----|-------3----------3-----|-------2----------2-----|
-------------3----------|-------------3----------|--3---------------------|
--1---------------------|--1---------------------|-------------0----------|


  G                        C
  Q    E  Q    E  E  E     Q    E  E  Q    E  E     Q    E  E  Q    E  E
------------------x-----|------------------------|------------------------|
-------x--3-------3--3--|-------x--1-------1--1--|-------x--1-------1--1--|
-------0-------0--0-----|-------0----------0-----|-------0----------0-----|
-------0----------0-----|-------2----------2-----|-------2----------2-----|
------------------------|--3---------------------|--3---------------------|
--3---------------------|-------------0----------|-------------0----------|


  Am                                                F
  Q    E  E  Q    E  E     Q    E  E  Q    E  E     Q    E  E  Q    E  E
------------------------|------------------------|------------------------|
-------x--1-------1--1--|-------x--1-------1--1--|-------x--1-------1--1--|
-------2----------2-----|-------2----------2-----|-------2----------2-----|
-------2----------2-----|-------2----------2-----|-------3----------3-----|
--0---------------------|--0---------------------|-------------3----------|
-------------0----------|-------------0----------|--1---------------------|


                           C                        G
  Q    E  E  Q    E  E     Q    E  E  Q    E  E     Q    E  Q    E  E  E
------------------------|------------------------|------------------------|
-------x--1-------1--1--|-------x--1-------1--1--|-------x--3-------3--3--|
-------2----------2-----|-------0----------0-----|-------0-------0--0-----|
-------3----------3-----|-------2----------2-----|-------0----------0-----|
-------------3----------|--3---------------------|------------------------|
--1---------------------|-------------0----------|--3---------------------|


  And Repeat...

ĂŽnscrie-te la newsletter


Like us on Facebook