Tiny Vessels (ver6) Tab - Death Cab For Cutie






Tabbed by: Chewy1007


This is what I find works best when playing with Tiny Vessels. I couldn't find a version 
the tab that sounded as good as this, so enjoy!
The entire song is the verse except when they go in to the chorus after verse 2.

VERSE

Guitar 1


      *repeat
E -------------------||------------------|---------------------|
B -------------------||------------------|---------------------|
G ------------------o||------------------|---------------------|
D ------7---9---11--o||------7---9---7---|-----4---4---4---4---|
A --9-9---9---9------||--7-7---7---7-----|---5---5---4---2-----|
E -------------------||------------------|---------------------|


Guitar 2

E -------------------|--------------------|-------------------------|-------------------------|
B ------------10-----|--------------------|-------------------------|-------------------------|
G --------9--------9-|--------6---------6-|-------------------------|-------------------------|
D ---7-7-------------|---7-7-------9------|-----4---4--7---4-----4--|-----4---4---7---4---4---|
A ---9-9----9----9---|---9-9----9-----9---|---7---7-----------7-----|---5---5-----------5-----|
E --(0)--------------|--(0)---------------|-------------------------|-------------------------|

CHORUS

E ------------------------------------------|
B ------------------------------------------|
G ---7777777788888888-----------------667---|(x3)
D ---xxxxxxxxxxxxxxxx44444444-4-66-77-667---|
A ---555555556666666644444444-4-66-77-440---|
E -------------------22222222-2-44-55-------|

E ---------------|
B ---------------|
G ---999999996---|
D ---xxxxxxxxx---|
A ---777777774---|
E ---------------|


Verse 1
Verse 2
Chorus
Verse 3
Verse 4

ĂŽnscrie-te la newsletter


Like us on Facebook