Title And Registration Tab - Death Cab For Cutie






Album: Transatlanicism
Song: Title and Registration

Capo 2ond fret!!! hmmm....yes.....


intro/verse

e-----------------------------------------------------
b--------------------------------------0--3-0-1-0-----
g--------------------------------------0----------2-0-
d--5-5--7-9-7-5------5-5--7-9-7-5------2--------------
a-7-7-7---------3-3/5-5-5----------3-3-3--------------
e-----------------------------------------------------


e----------------------------------------------
b--------------------------------------0-------
g--------------------------------------0-------
d--5-5--7-9-7-5------5-5--7-9-7-5------2-------
a-7-7-7---------3-3/5-5-5----------3-3-3-------
e----------------------------------------------


chorus


e-----------------------------
b---0--0----0--0----0--1------
g--0-0--0--0-0--0--0-0--------
d-----------------------------
a-3---3-----------0-----------
e---------3---3---------------

ĂŽnscrie-te la newsletter


Like us on Facebook