Your Heart Is An Empty Room (ver3) Tab - Death Cab For Cutie






main guitar part is simply G then E-minor shapes w/Capo 5th fret

2nd guitar (actual fret numbers, not capo-altered):
|---T78------------------|
|-8----------------------|
|--7---------------------|
|------------------------|
|------------------------|
|------------------------|
1st one
|-----W-----------------|
|-8-5-------------------|
|-----------------------|
|-----------------------|
|-----------------------|
|-----------------------|
2nd one
|-----T-8----------------|
|-8-5-----8--------------|
|------------------------|
|------------------------|
|------------------------|
|------------------------|
3rd
|-----W------T-----8--------|
|-8-5----8-5---8-5----------|
|---------------------------|
|---------------------------|
|---------------------------|
|---------------------------|
4th
|-----T-8----------------|
|-8-5-----8--------------|
|------------------------|
|------------------------|
|------------------------|
|------------------------|

Chorus:
|-----W----5-7-8---------|
|-8-5----------------888-|
|------------------------|
|------------------------|
|------------------------|
|------------------------|
and all you see...

|-----W----5-7-8-------------|
|-8-5---------------[8]--

ĂŽnscrie-te la newsletter


Like us on Facebook