No Compliance Solo Tab - Delain




    4:03
E||------------------------------|
B||--------20--17-----22--15~----|
G||--19--------------------------|
D||------------------------------|
A||------------------------------|
E||------------------------------|

  
--(17)------------------------|
---17---13----12----13----15--|
------------------------------|
------------------------------|
------------------------------|
------------------------------|


-----15---------------17----|
---------15b~---------------|
----------------------------|
----------------------------|
----------------------------|
----------------------------|

           
----------------------------|
--15----17--13----12--------|
------------------------12--|
----------------------------|
----------------------------|
----------------------------| Then repeat from the beginning

ĂŽnscrie-te la newsletter


Join the ranks ! LIKE us on Facebook