My Glorious Solo Tab - DELIRIOUS






My Glorious Solo Tab

 
e------------9-----|-7---12--12-12|-10-9-7|--5-4---|
b--10-10-10 5-5----|--------------|-------|--------|
g------------------|--------------|-------|--------|
d------------------|--------------|-------|--------|
a------------------|--------------|-------|--------|
e------------------|--------------|-------|--------|
   

e|--5-5-5---5--7|-5---12-12-14|14-14-12-|-16------|
b|-5-------5--5-|----5--------|---------|---------|
g|--------------|-------------|---------|---------|
d|--------------|-------------|---------|---------|
a|--------------|-------------|---------|---------|
e|--------------|-------------|---------|---------|


e--------------|-------------|-----------9-------|----9-------------------|
b---10-9-7-----|-10-9-7---7-9|-10-12-10---10-12--|-10---10  -12-10-9------|
g-----------9--|--------9----|-------------------|------------------9-----|
d--------------|-------------|-------------------|------------------------|
a--------------|-------------|-------------------|------------------------|
e--------------|-------------|-------------------|------------------------|


e--12-12-12-12-|--12--14-12-17-16---19-21|-21-21-22--21-|19---------|
b--------------|-------------------------|--------------|-----------|
g--------------|-------------------------|--------------|-----------|
d--------------|-------------------------|--------------|-----------|
a--------------|-------------------------|--------------|-----------|
e--------------|-------------------------|--------------|-----------|

ĂŽnscrie-te la newsletter


Like us on Facebook