Personal Jesus Acoustic Tab - Depeche Mode






Depeche Mode - Personal Jesus (Acoustic)

e|--------------------------------|-----------------------------|-----------------------------|
B|--------------------------------|-----------------------------|-----------------------------|
G|--------------------------------|-----------------------------|-----------------------------|
D|----------2---------------2-----|-------2--------------2------|-------2--------------2------|
A|--------------------------------|-----------------------------|-----------------------------|
E|--0--3-0----3-0--0--3--0----3-0-|--3-0----3-0--0--3--0----3-0-|--3-0----3-0--0--3--0----3-0-|

e|------------------------------|-----------------------------|-----------------------------|
B|------------------------------|-----------------------------|-----------------------------|
G|------------------------------|-----------------------------|-----------------------------|
D|--------2---------------2-----|-------2--------------2------|-------2--------------2------|
A|------------------------------|-----------------------------|-----------------------------|
E|---3-0----3-0--0--3--0----3-0-|--3-0----3-0--0--3--0----3-0-|--3-0----3-0--0--3--0----3-0-|
                            Your own           personal          Jesus
e|------------------------------|-----------------------------|-------------------------------|
B|------------------------------|-----------------------------|-------------------------------|
G|------------------------------|--------2--------------------|-------------------------------|
D|--------2---------------2-----|-----------------------------|---------2--------------2------|
A|------------------------------|-0-3-0----3-0--2-2-2--0-0-0-0|-------------------------------|
E|---3-0----3-0--0--3--0----3-0-|---------------3-3-3-2-2-2-2-|-0--3-0----3-0--0--3--0----3-0-|
     someone to hear your prayers                          Your own  personal
                      someone who cares
e|------------------------------|-----------------------------|-----------------------------|
B|------------------------------|-----------------------------|-----------------------------|
G|------------------------------|-----------------------------|--------2--------------------|
D|--------2---------------2-----|-------2--------------2------|-----------------------------|
A|------------------------------|-----------------------------|-0-3-0----3-0--2-2-2--0-0-0-0|
E|---3-0----3-0--0--3--0----3-0-|--3-0----3-0--0--3--0----3-0-|---------------3-3-3-2-2-2-2-|
       Jesus                      someone to hear your prayers
                                               someoone who's there
e|------------------------------|-----------------------------|-----------------------------|
B|------------------------------|-----------------------------|-----------------------------|
G|------------------------------|-----------------------------|-----------------------------|
D|---------2---------------2----|-------2--------------2------|-------2--------------2------|
A|------------------------------|-----------------------------|-----------------------------|
E|-0--3-0----3-0--0--3--0---3-0-|--3-0----3-0--0--3--0----3-0-|--3-0----3-0--0--3--0----3-0-|
Feeling unknown
                                                                 and you're
                                                                  all alone

  G                          D         Am                        B7
e|---------------------------2--|-----------------------------|-----------------------------|
B|---------------------------3--|------1----------------------|--0------------0-------------|
G|-0-------------------------2--|------2----------------------|--2------------3-------------|
D|-0-------------------------0--|------2----------------------|--1------------2-------------|
A|-2----------------------------|------0----------------------|--2------------3-------------|
E|-3----------------------------|-----------------------------|-----------------------------|
   Flesh and bone by the     telephone lift up the reciever I'll make you a believer

e|------------------------------|-----------------------------|
B|------------------------------|-----------------------------|
G|------------------------------|-----------------------------|
D|---------2---------------2----|-------2--------------2------|
A|------------------------------|-----------------------------|
E|-0--3-0----3-0--0--3--0---3-0-|--3-0----3-0--0--3--0----3-0-|
                                   Take second best put
                                              me to the test

 G                         D                 Am                      B
  Things on your chest you need to confess   I will deliver you know I'm a
   C
forgiver


e|------------------------------|------------0--------------------|
B|------------------------------|-2-2--2--2--2---1--1---1--1---1--|
G|------------------------------|-3-3--3--3--3---2--2---2--2---2--|
D|---------2---------------2----|-4-4--4--4--4---3--3---3--3---3--| (x2)
A|------------------------------|-4-4------------3--3---3--3---3--|
E|-0--3-0----3-0--0--3--0---3-0-|---------------------------------|
                                               Reach out and
                                                     touch faith
e|-------------------------------|-----------------------------|-----------------------------|
B|-------------------------------|-----------------------------|-----------------------------|
G|-------------------------------|-----------------------------|-----------------------------|
D|---------2---------------2-----|-------2--------------2------|-------2--------------2------|
A|-------------------------------|-----------------------------|-----------------------------|
E|-0--3-0----3-0--0--3--0----3-0-|--3-0----3-0--0--3--0----3-0-|--3-0----3-0--0--3--0----3-0-|
                             Your own      personal               Jesus
e|------------------------------|-----------------------------|-------------------------------|
B|------------------------------|-----------------------------|-------------------------------|
G|------------------------------|--------2--------------------|-------------------------------|
D|--------2---------------2-----|-----------------------------|---------2--------------2------|
A|------------------------------|-0-3-0----3-0--2-2-2--0-0-0-0|-------------------------------|
E|---3-0----3-0--0--3--0----3-0-|---------------3-3-3-2-2-2-2-|-0--3-0----3-0--0--3--0----3-0-|
    Someone to hear your prayers                       Your own      personal
                     someone who cares
e|------------------------------|-----------------------------|-----------------------------|
B|------------------------------|-----------------------------|-----------------------------|
G|------------------------------|-----------------------------|--------2--------------------|
D|--------2---------------2-----|-------2--------------2------|-----------------------------|
A|------------------------------|-----------------------------|-0-3-0----3-0--2-2-2--0-0-0-0|
E|---3-0----3-0--0--3--0----3-0-|--3-0----3-0--0--3--0----3-0-|---------------3-3-3-2-2-2-2-|
     Jesus                        someone to hear your prayers
                                                   someone who there
e|------------------------------|-----------------------------|-----------------------------|
B|------------------------------|-----------------------------|-----------------------------|
G|------------------------------|-----------------------------|-----------------------------|
D|---------2---------------2----|-------2--------------2------|-------2--------------2------|
A|------------------------------|-----------------------------|-----------------------------|
E|-0--3-0----3-0--0--3--0---3-0-|--3-0----3-0--0--3--0----3-0-|--3-0----3-0--0--3--0----3-0-|

e|----------------------------|-----------------------------|
B|----------------------------|-----------------------------|
G|----------------------------|-----------------------------|
D|-------2---------------2----|-------2--------------2------|
A|----------------------------|-----------------------------|
E|--3-0----3-0--0--3--0---3-0-|--3-0----3-0--0--3--0----3-0-|
                                Feeling unknown and you're
                                                   All alone

  G                          D         Am                        B
e|---------------------------2--|-----------------------------|-----------------------------|
B|---------------------------3--|------1----------------------|--0------------0-------------|
G|-0-------------------------2--|------2----------------------|--2------------3-------------|
D|-0-------------------------0--|------2----------------------|--1------------2-------------|
A|-2----------------------------|------0----------------------|--2------------3-------------|
E|-3----------------------------|-----------------------------|-----------------------------|
   Flesh and bone by the     telephone lift up the reciever I'll make you a believer

e|------------------------------|--------------------------------------|
B|------------------------------|-1-----------------0------------0-----|
G|------------------------------|-2-----------------2------------3-----|
D|---------2---------------2----|-2-----------------1------------2-----|
A|------------------------------|-0-----------------2------------3-----|
E|-0--3-0----3-0--0--3--0---3-0-|--------------------------------------|
                                 I will deliver you know I'm a forgiver

e|------------------------------|------------0--------------------|
B|------------------------------|-2-2--2--2--2---1--1---1--1---1--|
G|------------------------------|-3-3--3--3--3---2--2---2--2---2--|
D|---------2---------------2----|-4-4--4--4--4---3--3---3--3---3--| (x4)
A|------------------------------|-4-4------------3--3---3--3---3--|
E|-0--3-0----3-0--0--3--0---3-0-|---------------------------------|
                                               Reach out and
                                                     touch faith

e|------------------------------|------------0--------------------0--|
B|------------------------------|-2-2--2--2--2---1-----1-------0-----|
G|------------------------------|-3-3--3--3--3---2-----2------0------|
D|---------2---------------2----|-4-4--4--4--4---3-----3-----2-------|
A|------------------------------|-4-4------------3-----3----2--------|
E|-0--3-0----3-0--0--3--0---3-0-|------------------------------------|
                                               Reach out and
                                                     touch faith






Like us on Facebook