Policy Of Truth Bass Tab - Depeche Mode






Its rather hard to pick up the bass cause its synth. i change up the rythem alot. listen 
the song and play it to your liking.


intro
G---------------------------------------|
D---------------------------------------|
A-3-33-3-3--3-33-3-3-6-66-6-6--6-66-6-6-|
E---------------------------------------|


verse
G----------------------------------------------------------|
D----------------------------------------------------------|
A-3-33-3-3--3-33-3-3-6-66-6-6--6-66-6-6--------------------|
E---------------------------------------4-44-4-4--4-44-4-4-|


Chorus
G----------------------------------------|
D----------------------------------------|
A----------------------------------------|
E-1--1-111--1--1-111-4--4-4-444--4-4-444-|

G----------------------------------------|
D----------------------------------------|
A-3--3-333--3--3-333-6--6-6-666--6-6-666-|
E----------------------------------------|


last time chorus
G----------------------------------------|
D----------------------------------------|
A----------------------------------------|
E-1--1-111--1--1-111-4--4-4-444--4-4-444-|

G----------------------------------------|
D----------------------------------------|
A-3--3-333--3--3-333-2--2-2-222--2-2-222-|
E----------------------------------------|


solo/outro
G----------------------------------------|
D----------------------------------------|
A----------------------------------------|
E-1--1-111--1--1-111-4--4-4-444--4-4-444-|

G----------------------------------------|
D----------------------------------------|
A-3--3-333--3--3-333-1--1-1-111--1-1-111-|
E----------------------------------------|






Like us on Facebook