Precious Intro Tab - Depeche Mode






-------------------------------------------------------------------------------
     SONG NAME - Precious
-------------------------------------------------------------------------------
Tabbed by:Akinsmurf
Email:papasmurfsbalsac@yahoo.com

Tuning:Standard

e|------------------------------------------------------|
B|------------------------------------------------------|
G|------------------------------------------------------|
D|------------------------------------------------------|
A|12---14-14-14-9---------------------------------------|
E|10---12-12-12-7---------------------------------------|

the solo before(i pray u learn to trust have faith in both of us..)

e|------------------------------------------------------|
B|------------------------------------------------------|
G|------------------------------------------------------|
D|------------------------------------------------------|
A|4--4-4-4-x-7--7-7--7-12-12-12/-----------------------|
E|2--2-2-2-x-5--5-5--5-10-10-10/-----------------------| (x5)

and then,

e|------------------------------|
B|------------------------------|
G|------------------------------|
D|------------------------------|
A|4--4-4-4-x-7--7-7--7-9-9-9/--|
E|2--2-2-2-x-5--5-5--5-7-7-7/--| (x5) fade away






Like us on Facebook