Precious Tab - Depeche Mode






*Recommended
Tune down a half step:
Eb Ab Db Gb Bb Eb


Intro/Verse

e-------3---0-----------2--------------3---0-----------2--------|
b-----0---------0-----3-----3--0-----0---------0-----3-----3--0-|
g---0---------------2--------------0---------------2-----2------|
d-2-------2---2--0--------0--0---2-------2---2--0-----------0---|
a---------------------------------------------------------------|
e---------------------------------------------------------------|

Verse 1
Precious and fragile things
Need special handling
My God what have we done to you
We always tried to share
The tenderest of care
Now look what we have put you through

Chorus
*If you know how to pluck these chords, it will sound better

CG
Things get damaged
Em
Things get broken
Em        G
I thought we'd manage
        C
But words left unspoken
G
Left us so brittle
               Am
There was so little left to give

e-0-------0-0--0-|
b-0-------3--3--3-|
g-0-------0--0--0-|
d-2-------2--2--2-|
a-x-------x--x--x-|
e-x-------x--x--x-|






Like us on Facebook