Surrender Chords - Depeche Mode






   
    Em  Gdim7   C7    F    Bb     A7   Dm    Dm/C   C     G    G5 F#5

E |--0-----3-----0----1-----1---0----5--1---1----5--0-----1--------------||
B |--0-----5-----1----1-----3---2----5--3---3----6--1-----0--------------||
G |--0-----3-----3----2-----3---0-OR-6--2---2-OR-5--0-----0--------------||
D |--2-----5-----2----3-----3---2----5--0---0----0--2-----0-----5-----4--||
A |--2-----4-----3----3-----1---0----7------3-------3-----2-----5-----4--||
E |--0-----3----------1--------------5--------------3-----3-----3-----2--||

INTRO:
EmCmAm3times then 

1.
E |---10-5-7---0-----||
B |--------------3---||
G |----------------2-||
D |------------------||OR/AND
A |------------------||
E |-0----------------||

2.
E |----------------||
B |----------------||
G |----------------||
D |-------(7-8s7-5)||
A |-2s7------------||
E |----------------||

[Em]Laying on your holy bed
[Gdim7]By the hallowed door
[C7]Feeling like an infidel
[F]Not worthy of your call

[Em]Tempted by your innocence
[Gdim7]Beckoned to my fate
[C7]I won't face the consequence
[F]I wouldn't hesitate

[Bb]I'm a man of flesh and bone
[A7]Rapture Rushing through my veins
[Dm]Passion Flaming  [Dm/C]In my heart
[Bb]Heavenly [G]surrender once [C] again  [A7] (Yeah) 

Emthen 1./2.

Shackled like an animal
Chained to my desires
Just another sacrifice
To love's eternal fight

Tame me with your tenderness
And break my brittle heart
Easily and elegantly
Tear my world apart

I'm a man of flesh and bone
Rapture Rushing through my veins
Passion Flaming In my heart
Heavenly surrender once again (Yeah)

Em     G5F#5or 2.

[Em]We're living in a world full of illusionG5F#5
[Em]Everything is so unrealG5F#5
[Em]My mind is in a state of confusion        G5F#5
[Em]But I can't deny the way I feel G5F#5

[Bb] [A7] [Dm] [Dm/C] [Bb] [G] [C] [A7]

[Bb]I'm a man of flesh and bone
[A7]Rapture Rushing through my veins
[Dm]Passion Flaming  [Dm/C]In my heart
[Bb]Heavenly [G]surrender once [C] again  [A7] (Yeah) repeat

[Bb]I'm a man of [A7] flesh and bone
[Dm]Rapture [Dm/C]Rushing [Bb]through my [G]veins [C] [A7] Yeahrepeat 

do you have any suggestions or corrections? 
d.lukatscher@gmx.de

have fun!






Like us on Facebook