To Have And To Hold Spanish Taster Tab - Depeche Mode






Ok, Great Song, Only 1 Guitar Riff And This Is It:

e--------------------------------------------|
B------------------------------------------7-|
G----8-7-5-----5----8-7-5----5----8-7-5------|
D--5--------5-----5--------5----5-------7----|
A--------------------------------------------|
E--------------------------------------------|

e--------------------------------|
B-------------6------------------|
G----8-7-5----------8-7-5-----5--|
D--7-------6-----6---------5-----|
A--------------------------------|
E--------------------------------|

And Goes Back To The Begining






Like us on Facebook