Eternal Light Intro Tab - DERDIAN






If anyone can do the whole song or post a guitar pro version it will be great!



                                                                  trill
---------------9-7-6--------9---7--6--6--9--14-13-14-16--14-13-11-9(10)------|
-7--9--11---11--------9--7---------------------------------------------------|
-----------------------------------------------------------------------------|
-----------------------------------------------------------------------------|
-----------------------------------------------------------------------------|
-----------------------------------------------------------------------------|

(not sure |
about this|
part)     |
          |                               trill        bend
---9---11-|----------------9-7-6------9-7-6(7)--6--14--14^--14--14^--14------|
------------7--9--11---11--------9-7-----------------------------------------|
-----------------------------------------------------------------------------|
-----------------------------------------------------------------------------|
-----------------------------------------------------------------------------|
-----------------------------------------------------------------------------|

ĂŽnscrie-te la newsletter


Like us on Facebook